Song name
# A B C D E F G H I J K L M N O P Q R S T U V W X Y Z

Nevershoutnever - Losing It tab

This is if you don't have a capo. Try to figure out the strumming pattern by yourself
-Verse 1
-Pre-Chorus
-Chorus
-Verse 2
-Pre-Chorus
-Chorus(2)


All we ever did was move around...
Intro/Verses
e|----------------------------------------------------------3-----------|
b|----------------------------------------------------------3-----------|
g|---------4----------------7-------------9-----------------5-----------|
d|---------5----------------7-------------9-----------------5-----------|
a|---------5----------------5-------------7-----------------3-----------|
E|----------------------------------------------------------3-----------|

 My heart was racing...
 Pre Chorus
e|--------------------------3-------------------------------------------|
b|--------------------------3-------------------------------------------|
g|-----------9--------------5-------------4-----------------7-----------|
d|-----------9--------------5-------------5-----------------7-----------|
a|-----------7--------------3-------------5-----------------5-----------|
E|--------------------------3-------------------------------------------|

I just lost it, and I can't believe it...
Chorus
e|-----------3---------------------------------------------------------|
b|-----------3---------------------------------------------------------|
g|-----------5--------------7-------------9-----------------7----------|
d|-----------5--------------7-------------9-----------------7----------|
a|-----------3--------------5-------------7-----------------5----------|
E|-----------3---------------------------------------------------------|
Tap to rate this tab
 
# A B C D E F G H I J K L M N O P Q R S T U V W X Y Z