Song name
# A B C D E F G H I J K L M N O P Q R S T U V W X Y Z

Nevershoutnever - Cant Stand It tab

e|-------------------------------------------------------------------------|
B|---8-8---8-8-8------------------------------------------7---8---7-8------|
G|---9-7---9-9-7-------9-9-7----------------------------8---8--------------|
D|---------------------------10-9-7-9-10-10-9-9-------9--------------------|
A|-------------------------------------------------------------------------|
E|-------------------------------------------------------------------------|

e|--7-10-7-----------------------------------------------------------------|
B|-----------10-8-7--------------------------------------------------------|
G|--------------------9-7--------------------------------------------------|
D|------------------------10----9-10-9----7-9-7----------------------------|
A|----------------------------------------------10-------------------------|
E|-------------------------------------------------------------------------|
Tap to rate this tab
# A B C D E F G H I J K L M N O P Q R S T U V W X Y Z