Nevershoutnever - Liar Liar tab

Liar Liar
NeverShoutNever!
The Summer EP

Standard tuning
Verse 1-1
  F#m  D   Bm  E
|--2---2---2---0--|
|--2---3---3---0--|
|--2---2---4---1--|
|--4---4---4---2--|
|--4---5---2---2--|
|--2---x---x---0--|
You got it all down got it all down into a science
Breaking hearts is what you do for fun, little one.
But see I wrote it all down wrote it all down into a song
Ill break your heart, in just three minutes now, look who won.

Piano break:
F#m, D, Bm, E

Verse1-2:
-Same chords-
Yeah im moving on but thatís the way it goes when you break my heart, everybody knows.
Donít pull that shit again.
For me now that im building up, I can see that ive had enough of you.
Im finally through.

Chorus
   D  F#m  A  E  D  F#m  Bm 
|--2---2---x--0--2---2---2--|
|--3---2---5--0--3---2---3--|
|--2---2---6--1--2---2---4--|
|--4---4---7--2--4---4---4--|
|--5---4---7--2--5---4---2--|
|--x---2---5--0--x---2---x--|
And all I see in you
Is another mistake right over my shoulder.
Now I see who you are.
And all I saw in you, 
Was girl just lookin' for love.
Now all I need is an apology
But damn, that's too much.

Piano break:
F#m, D, Bm, E

Verse 2-1
  F#m  D   Bm  E
|--2---2---2---0--|
|--2---3---3---0--|
|--2---2---4---1--|
|--4---4---4---2--|
|--4---5---2---2--|
|--2---x---x---0--|
Everybodys talkin''bout how you're not the girl 
That you say you are.
With the deceiving little smile and your black hole of denial, 
I'm not the least bit surprised 
That your whole wide world 
Is crashing down right before my eyes.

Chorus
And all I see in you
Is another mistake right over my shoulder.
Now I see who you are.
And all I saw in you, 
Was girl just lookin' for love.
Now all I need is an apology

Solo:
|---------------|-----------------|-------------------|--------------|
|//7~7~7~7~-----|-----------------|-------------------|--------------|
|--------------2|4/6--4--2-4-2---2|--4/6--4--2-4-2---2|--------2-----|
|-----------2h4-|-------------2h4-|---------------2h4-|2h4-2~~4-4-2-0|
|---------------|-----------------|-------------------|--------------|
|---------------|-----------------|-------------------|--------------|
F#m   D   Bm   E
|---------------|-----------------|-------------------|--------------|
|//7~7~7~7~-----|-----------------|-------------------|--------------|
|--------------2|4/6--4--2-4-2---2|--4/6--4--2-4-2---2|--------------|
|-----------2h4-|-------------2h4-|---------------2h4-|4/6~~---------|
|---------------|-----------------|-------------------|--------------|
|---------------|-----------------|-------------------|--------------|
F#m   D   Bm   E

Chorus
And all I see in you
Is another mistake right over my shoulder.
Now I see who you are.
And all I saw in you, 
Was girl just lookin' for love.
Now all I need is an apology
            F#m
Is that too much?
Tap to rate this tab
 
# A B C D E F G H I J K L M N O P Q R S T U V W X Y Z