Song name
# A B C D E F G H I J K L M N O P Q R S T U V W X Y Z

Nevershoutnever - I Love You 5 tab

intro:
e|----0-------0-------0-------0-------2-------2-------2-------2----|
B|----2-------2-------2-------2-------3-------3-------3-------3----|
G|----------------------------------------2---------------2--------|
D|--------2---------------2-------0---------------0----------------| x2
A|-0--------------0------------------------------------------------|
E|-----------------------------------------------------------------|

I love you one, two, three shoobedoo
I love you four, thats more than I can afford
and I can tell, someday, that im gonna say the truth
I love you 5.

Guitar solo 1:
e|------------------------------------------------------------------|
B|------------------------------------------------------------------|
G|------------------------------------------------------------------|
D|---------2----5--5--4-----2-------4---7--4------------------------|
A|--0---4---------------------4~--5----------5--3b4-----------------|
E|------------------------------------------------------------------|

Verse 1: (no guitar)
Ive been walking around, tryin to figure out
What i am feeling, all the feelings that im feeling now
And i got more on my mind, then i have got on my plate.

Chorus:
               A
I love you one, two, three shoobedoo
                D
I love you four, thats more than I can afford
               A                                    D
and I can tell, someday, that im gonna say the truth

Verse 2:
             D                        
I love you five times more than any boy from before
               A 
Coz all they really cared about is 
        D                         C
And i truely believe, that this love could be
       D                              D
And i could count five times off the top of my head
          A                        A
When i sucked it in, coz you were hanging with him
            D                  A                D
But i got something to say, i love you all the same

Chorus:
I love you one, two, three shoobedoo
I love you four, thats more than I can afford
and I can tell, someday, that im gonna say the truth

Guitar solo 2: (play over chrorus^)
e|--------------------------------------------------------------|
B|--------------------------------------------------------------|
G|-----------------------------------------------7-----7--------|
D|-----------4----7--7--6---4-------6---9---6-------------------|
A|--2-----6-------------------6---7------------7----5-----5-----|
E|--------------------------------------------------------------|

               C
I love you one, two, three shoobedoo
               F
I love you four, thats more than I can afford
             C                                       F
And I can tell, someday, that im gonna say the truth
           C
I love you 5.
           C
I love you 5.
           C
I love you 5.
Tap to rate this tab
 
# A B C D E F G H I J K L M N O P Q R S T U V W X Y Z