Song name
# A B C D E F G H I J K L M N O P Q R S T U V W X Y Z

Nevershoutnever - Cant Stand It tab

                             Can't Stand It

This is what you hear when the guitar plays

e-12-12-12-12-12-12--10-8-10-12-15-12-10-12-|
B-------------------------------------------|
G-------------------------------------------|
D-------------------------------------------|        X2
A-------------------------------------------|
E-------------------------------------------|


e-------------------------------------------|-------------|
B-12-10-8-10-12--12-10-8-10-12--10-12-12-10-|-12-13-12-10-|
G-------------------------------------------|-------------|
D-------------------------------------------|-------------|
A-------------------------------------------|-------------|
E-------------------------------------------|-------------|

Piano comes in slow.

e----15----------------------------15-------|
B-13----12-10-12-10-12-10--8-10-12----------|
G-------------------------------------------|
D-------------------------------------------|
A-------------------------------------------|
E-------------------------------------------|


e---------------------------12--------------|
B-12-10-12-10-12-10--8-8-10----15-14-12-----|
G-------------------------------------------|
D-------------------------------------------|
A-------------------------------------------|
E-------------------------------------------|


e----15------------------------19-17--------|
B-13----17-15-15-17--15-15--15--------------|
G-------------------------------------------|
D-------------------------------------------|
A-------------------------------------------|
E-------------------------------------------|


e-------------------19-17-------------------|------------|
B-17-15-15-17-15-15-------12-12-11-10-8-----|-8-11-11-10-|
G-------------------------------------------|------------|
D-------------------------------------------|------------|
A-------------------------------------------|------------|
E-------------------------------------------|------------|
Tap to rate this tab
# A B C D E F G H I J K L M N O P Q R S T U V W X Y Z