Song name
# A B C D E F G H I J K L M N O P Q R S T U V W X Y Z

Nevershoutnever - New Sound tab

-------------------------------------------------------------------------------
                             New Sound - Never Shout Never
-------------------------------------------------------------------------------
Tabbed by: l0vedaze
E-mail: notclouds@gmail.com

Tuning: Standard

I haven't seen a decent tab for this song yet, so I figured I should put up
the way I play it.  Hopefully spacing doesn't get mucked up after submitting.
I learned most of the song by watching Chris play it live, but I had to tab
the solo by ear. I'm not good at all at picking out notes by ear, so feel free
to correct me in the comments. (as I'm sure the low part of the solo is wrong)

Verse:
   D  D   U D U D  D  D U  D  D   U D U D  D  D U
e|-7--7---X-7-7-7--7--X-X--5--5---X-5-5-5--5--X-X--3-------------------------|
B|-8--8---X-7-7-7--7--X-X--7--7---X-5-5-5--5--X-X--5---Figure out the strum--|
G|-9--9---X-8-8-8--8--X-X--7--7---X-6-6-6--6--X-X--5-------pattern for this--| Repeat once
D|-9--9---X-9-9-9--9--X-X--7--7---X-7-7-7--7--X-X--5----chord. Its not hard--|
A|-7--7---X-9-9-9--9--X-X--5--5---X-7-7-7--7--X-X--3-------------------------|
E|----------7-7-7--7--X-X---------X-5-5-5--5--X-X----------------------------|

Pre-chorus?:
e|-7--S--8--7--S--5--S-------------3-----------------------------------------|
B|-8--S--8--7--S--7--S-------------5---Find your own strum-------------------|
G|-9--S--9--8--S--7--S-------------5---pattern with this---------------------|
D|-9--S--10-9--S--7--S-------------5---chord again---------------------------|
A|-7--S--10-9--S--5--S-------------3-----------------------------------------|
E|----S--8--7--S-----S--7p6p5\-----------------------------------------------|

Chorus:
e|-5----------------7----------------5-----7---------------------------------|
B|-5----------------7----------------5-----7---------------------------------|
G|-6-(play 7 times)-8-(play 7 times)-6-x7--8-(hold this)---------------------|
D|-7----------------9----------------7-----9---------------------------------|
A|-7----------------9----------------7-----9---------------------------------|
E|-5----------------7----------------5-----7---------------------------------|

Pre-verse?:
   D  D  D  D      U U   U U   U U   U U  D
e|-7--7--5--5------7-7---7-7---5-5---5-5--3----------------------------------|
B|-8--7--7--5------8-8---7-7---7-7---5-5--5----------------------------------|
G|-9--8--7--6------9-9---8-8---7-7---6-6--5-x3-------------------------------|
D|-9--9--7--7------9-9---9-9---7-7---7-7--5----------------------------------|
A|-7--9--5--7----7-7-7---9-9-5-5-5---7-7--3----------------------------------|
E|----7-----5----------7-7-7-------5-5-5-------------------12\---------------|

Repeat as necessary.

Solo (all palm muted):
e|---------------------------------------------------------------------------|
B|---------------------------------------------------------------------------|
G|-------------------------------------------Repeat this four times----------|
D|-----5----------------5---7h8-5h7p5----------------------------------------|
A|-5h7---7--5-5h7---5h7---7-----------7--------------------------------------|
E|---------------------------------------------------------------------------|

e|---------------------------------------------------------------------------|
B|---------------------------------------------------------------------------|
G|---------------------------------------------------------------------------|
D|---------5b-------7b------8b---------------5b-------7b-------8b------------|
A|-7-77-77----77-77---77-77---77-77--6-66-66----66-66----66-66----66-66------|
E|---------------------------------------------------------------------------|

e|---------------------------------------------------------------------------|
B|---------------------------------------------------------------------------|
G|---------------------------------------------------------------------------|
D|---------------------------------------------5b------7b------8b------------|
A|-0-00-00-5b-00-00-7b-00-00-8b-00-00--6-66-66---66-66---66-66----66-66------|
E|---------------------------------------------------------------------------|

e|---------------------------------------------------------------------------|
B|---------8b------10b------11b---------------8b------10b------11b-----------|
G|-9-99-99---99-99----99-99----99-99--8-88-88---88-88----88-88----88-88------|
D|---------------------------------------------------------------------------|
A|---------------------------------------------------------------------------|
E|---------------------------------------------------------------------------|

e|---------------------------------------------------------------------------|
B|---------------------------------------------8b------10b------11b~~~-------|
G|-------------------------------------8-88-88---88-88----88-88--------------|
D|---------------------------------------------------------------------------|
A|-0-00-00-5b-00-00-7b-00-00-8b-00-00----------------------------------------|
E|---------------------------------------------------------------------------|

Outro:
e|---------------------------------------------------------------------------|
B|---------------------------------------------------------------------------|
G|---------------------------------------------------------------------------| Repeat once
D|-------5b---------------------5b-----7-8-7-5-7-5---------------------------|
A|-5--7-----7---5--5--7---5--7-----7---------------7-------------------------|
E|---------------------------------------------------------------------------|

e|---------------------------------------------------------------------------|
B|---------------------------------------------------------------------------|
G|---------------------------------------------------------------------------|
D|------5b----5b----------5b-----7-8-7-5-7-5----------5b----5b---------------|
A|-5--7----7-----7---5--7----7---------------7---5--7----7-----7-------------|
E|---------------------------------------------------------------------------|

e|---------------------------------------------------------------------------|
B|---------------------------------------------------------------------------|
G|---------------------------------------------------------------------------|
D|------5b----5b-------------------------------------------------------------|
A|-5--7----7-----7\\\\\------------------------------------------------------|
E|---------------------------------------------------------------------------|

************************************

| /   slide up
| \   slide down
| h   hammer-on
| p   pull-off
| ~   vibrato
| +   harmonic
| x   Mute note
| b   Bend
| pb  Pre-bend
| br  Bend release
| pbr Pre-bend release
| brb Bend release bend
| D   Downward strum
| U   Upward strum

************************************
Tap to rate this tab
# A B C D E F G H I J K L M N O P Q R S T U V W X Y Z