Song name
# A B C D E F G H I J K L M N O P Q R S T U V W X Y Z

Neverstore - My Greatest Enemy tab

This is my first tab I load up. If you find any mistakes tell me! :)

Carrobarro.karlsson@hotmail.com

It's not the whole song, I haven't figure out the chours yet.
It's just the vers and bridge. But I'll upload the chours soon :)



Intro 0.00 (dist)

E-----------------|-----------------|-----------------|-----------------|
B-----------------|-----------------|-----------------|-----------------|
G-------6-6-6-6-6-|-7-7-7-----------|-------6-6-6-6-6-|-7-7-7-----------| 2x
D-4-4-4-6-6-6-6-6-|-7-7-7-7-7-7-7-7-|-4-4-4-6-6-6-6-6-|-7-7-7-7-7-7-7-7-|  
A-4-4-4-4-4-4-4-4-|-5-5-5-7-7-7-7-7-|-4-4-4-4-4-4-4-4-|-5-5-5-7-7-7-7-7-|
E-2-2-2-----------|-------5-5-5-5-5-|-2-2-2-----------|-------5-5-5-5-5-|

Vers 0.08 (dist)

E-----------------|-----------------|-----------------|-----------------|
B-----------------|-----------------|-----------------|-----------------|
G-------6-6-6-6-6-|-7-7-7-----------|-------6-6-6-6-6-|-7-7-7-----------| 8x
D-4-4-4-6-6-6-6-6-|-7-7-7-7-7-7-7-7-|-4-4-4-6-6-6-6-6-|-7-7-7-7-7-7-7-7-|  
A-4-4-4-4-4-4-4-4-|-5-5-5-7-7-7-7-7-|-4-4-4-4-4-4-4-4-|-5-5-5-7-7-7-7-7-|
E-2-2-2-----------|-------5-5-5-5-5-|-2-2-2-----------|-------5-5-5-5-5-|
"There are in front of me.."

Chours 0.40 
(haven't figure it out)

Vers 0.55 (dist)

E-----------------|-----------------|-----------------|-----------------|
B-----------------|-----------------|-----------------|-----------------|
G-------6-6-6-6-6-|-7-7-7-----------|-------6-6-6-6-6-|-7-7-7-----------| 6x
D-4-4-4-6-6-6-6-6-|-7-7-7-7-7-7-7-7-|-4-4-4-6-6-6-6-6-|-7-7-7-7-7-7-7-7-|  
A-4-4-4-4-4-4-4-4-|-5-5-5-7-7-7-7-7-|-4-4-4-4-4-4-4-4-|-5-5-5-7-7-7-7-7-|
E-2-2-2-----------|-------5-5-5-5-5-|-2-2-2-----------|-------5-5-5-5-5-|

Brigde 1.19 (try to figure out how to play it! ^^ I don't know how to write it!)

E-----------------|-----------------|-----------------|-----------------|
B-----------------|-----------------|-----------------|-----------------|
G-----------------|-7-7--7----------|-----------------|-7-7--7----------| 1x
D-4-4---4-4-4--4--|-7-7--7-7-7--7---|-4-4---4-4-4--4--|-7-7--7-7-7--7----|  
A-4-4---4-4-4--4--|-5-5--5-7-7--7---|-4-4---4-4-4--4--|-5-5--5-7-7--7---|
E-2-2---2-2-2--2--|--------5-5--5---|-2-2---2-2-2--2--|--------5-5--5---|

Then chours again 1.27

Brigde 2 1.59


E-----------------|
B-----------------|
G-----------------|
D-4---------------| (let ring)
A-4---------------|
E-2---------------|


2.07 (something like this)
E-----------------|-----------------|
B-----------------|-----------------|
G-----------------|-----------------| 6x
D-4-4-4-4-4-4-----|-2-2-------------|  
A-----------------|-----4-4-4-------|
E-----------------|-----------------|

2.31

E-----------------|-----------------|
B-----------------|-----------------|
G-----------------|-7-7--7----------|
D-4-4---4-4-4--4--|-7-7--7-7-7--7---| 
A-4-4---4-4-4--4--|-5-5--5-7-7--7---|
E-2-2---2-2-2--2--|--------5-5--5---|

Chours 2.37 

Ends with:

E-----------------|
B-----------------|
G-----------------|
D-4-4-4-2--4-4-4--|
A-4-4-4-2--4-4-4--|
E-2-2-2----2-2-2--|


Tap to rate this tab
# A B C D E F G H I J K L M N O P Q R S T U V W X Y Z