Song name
# A B C D E F G H I J K L M N O P Q R S T U V W X Y Z

Neverstore - Kings Of The World tab

Neverstore - Kings Of The World
Album: Heroes Wanted

tabbed by Anton
antonhansson1@hotmail.com

tuning: Standard (EADGBE)


INTRO x2
e|-------------------------------------------------------------------------------|
B|-------------------------------------------------------------------------------|
G|-----------9-9-9-9-----------9-9-9/11-----------9-9-9-9-----------9-9-6/7------|
D|--7-7-7-7--9-9-9-9--7-7-7-7--9-9-9/11--4-4-4-4--9-9-9-9--4-4-4-4--9-9-6/7------|
A|--7-7-7-7--7-7-7-7--7-7-7-7--7-7-7/9---4-4-4-4--7-7-7-7--4-4-4-4--7-7-4/5------|
E|--5-5-5-5-----------5-5-5-5------------2-2-2-2-----------2-2-2-2---------------|

VERSE 1
e|-------------------------------------------------------------------------------|
B|-------------------------------------------------------------------------------|
G|-----------9-9-9-9-----------9-9-9/11-----------9-9-9-9-----------9-9-6/7------|
D|--7-7-7-7--9-9-9-9--7-7-7-7--9-9-9/11--4-4-4-4--9-9-9-9--4-4-4-4--9-9-6/7------|
A|--7-7-7-7--7-7-7-7--7-7-7-7--7-7-7/9---4-4-4-4--7-7-7-7--4-4-4-4--7-7-4/5------|
E|--5-5-5-5-----------5-5-5-5------------2-2-2-2-----------2-2-2-2---------------|

e|-------------------------------------------------------------------------------|
B|-------------------------------------------------------------------------------|
G|-----------9-9-9-9-----------9-9-9/11-----------9-9-9-9-----------9-9-9-9------|
D|--7-7-7-7--9-9-9-9--7-7-7-7--9-9-9/11--4-4-4-4--9-9-9-9--4-4-4-4--9-9-9-9------|
A|--7-7-7-7--7-7-7-7--7-7-7-7--7-7-7/9---4-4-4-4--7-7-7-7--4-4-4-4--7-7-7-7------|
E|--5-5-5-5-----------5-5-5-5------------2-2-2-2-----------2-2-2-2---------------|

PRECHORUS x3
e|-------------------------------------------------------------------------------|
B|-------------------------------------------------------------------------------|
G|-------------------------------------------------------------------------------|
D|--7-7-7--7-7-7--7-7-7-7-7-7----------------------------------------------------|
A|--5-5-5--4-4-4--x-x-x-x-x-x----------------------------------------------------|
E|----------------7-7-7-7-7-7----------------------------------------------------|

CHORUS
e|-------------------------------------------------------------------------------|
B|-------------------------------------------------------------------------------|
G|-------------------7-7-7-7-7-7-7-7-------------------7-7-7-7-7-7-7-7-----------|
D|--7-7-7-7-7-7-7-7--7-7-7-7-7-7-7-7--4-4-4-4-2-2-2-2--7-7-7-7-7-7-7-7-----------|
A|--7-7-7-7-7-7-7-7--5-5-5-5-5-5-5-5--4-4-4-4-2-2-2-2--5-5-5-5-5-5-5-5-----------|
E|--5-5-5-5-5-5-5-5-------------------2-2-2-2-0-0-0-0----------------------------|

INTRO x1

VERSE 2 x2
e|-------------------------------------------------------------------------------|
B|-------------------------------------------------------------------------------|
G|-----------9-9-9-9-----------9-9-9-9------------9-9-9-9-----------9-9-9-9------|
D|--7-7-7-7--9-9-9-9--7-7-7-7--9-9-9-9---4-4-4-4--9-9-9-9--4-4-4-4--9-9-9-9------|
A|--7-7-7-7--7-7-7-7--7-7-7-7--7-7-7-7---4-4-4-4--7-7-7-7--4-4-4-4--7-7-7-7------|
E|--5-5-5-5-----------5-5-5-5------------2-2-2-2-----------2-2-2-2---------------|
Pm  ***********************************************************************

PRECHORUS x3

CHORUS x2

Bridge
e|-------------------------------------------------------------------------------|
B|-------------------------------------------------------------------------------|
G|-------------------------------------------------------------------------------|
D|--4~---------------------------------------------------------------------------|
A|--4~---------------------------------------------------------------------------|
E|--2~---------------------------------------------------------------------------|

e|-------------------------------------------------------------------------------|
B|-------------------------------------------------------------------------------|
G|-----------7-7-7-7-----------9-9-9-9-----------7-7-7-7--9-9-9-9----------------|
D|--4-4-4-4--7-7-7-7--7-7-7-7--9-9-9-9--4-4-4-4--7-7-7-7--9-9-9-9----------------|
A|--4-4-4-4--5-5-5-5--7-7-7-7--7-7-7-7--4-4-4-4--5-5-5-5--7-7-7-7----------------|
E|--2-2-2-2-----------5-5-5-5-----------2-2-2-2----------------------------------|
Pm  ****************************************************

FINAL CHORUS 
e|-------------------------------------------------------------------------------|
B|-------------------------------------------------------------------------------|
G|-------------------7-7-7-7-7-7-7-7-------------------7-7-9-9-11-11-14-14-------|
D|--7-7-7-7-7-7-7-7--7-7-7-7-7-7-7-7--4-4-4-4-2-2-2-2--7-7-x-x-x--x--xx-xx-------|
A|--7-7-7-7-7-7-7-7--5-5-5-5-5-5-5-5--4-4-4-4-2-2-2-2--5-5-7-7-9--9--11-11-------|
E|--5-5-5-5-5-5-5-5-------------------2-2-2-2-0-0-0-0----------------------------|

CHORUS x2
e|-------------------------------------------------------------------------------|
B|-------------------------------------------------------------------------------|
G|-------------------7-7-7-7-7-7-7-7-------------------7-7-7-7-7-7-7-7-----------| 
D|--7-7-7-7-7-7-7-7--7-7-7-7-7-7-7-7--4-4-4-4-2-2-2-2--7-7-7-7-7-7-7-7-----------|
A|--7-7-7-7-7-7-7-7--5-5-5-5-5-5-5-5--4-4-4-4-2-2-2-2--5-5-5-5-5-5-5-5-----------|
E|--5-5-5-5-5-5-5-5-------------------2-2-2-2-0-0-0-0----------------------------|

Intro x1

ENDING
e|----5---5-4-----5---5-4-----5---5-4--------------------------------------------|
B|--5---5-----5-5---5-----5-5---5-----5------------------------------------------|
G|-------------------------------------------------------------------------------|
D|-------------------------------------------------------------------------------|
A|-------------------------------------------------------------------------------|
E|-------------------------------------------------------------------------------|


Enjoy!


Key
/ slide down
* palm mute
x mute string

Tap to rate this tab
# A B C D E F G H I J K L M N O P Q R S T U V W X Y Z