Song name
# A B C D E F G H I J K L M N O P Q R S T U V W X Y Z

Neverstore - Rockthefool tab

Help us improve GuitareTab! Take a short survey!
Neverstore - Rockthefool
Album: Heroes Wanted

tabbed by Anton
antonhansson1@hotmail.com

tuning: Standard (EADGBE)


Intro 1 (x 1)
e|--0-0-0-0--0-0--0-0-0-0--3-3--1-1--3-3--------------------------------------------|
B|--1-1-1-1--1-1--1-1-1-1--3-3--1-1--3-3--------------------------------------------|
G|--0-0-0-0--0-0--2-2-2-2--0-0--2-2--0-0--------------------------------------------|
D|--2-2-2-2--0-0--2-2-2-2--0-0--3-3--0-0--------------------------------------------|
A|--3-3-3-3--2-2--0-0-0-0--2-2--3-3--2-2--------------------------------------------|
E|-------------------------3-3--1-1--3-3--------------------------------------------|

Intro 2 (x 1)
e|----------------------------------------------------------------------------------|
B|----------------------------------------------------------------------------------|
G|--5-5-5-5-5-5-5-5-5-5-5-----------------------------------------------------------|
D|--5-5-5-5-5-5-5-5-5-5-5-----------------------------------------------------------|
A|--3-3-3-3-3-3-3-3-3-3-3-----------------------------------------------------------|
E|----------------------------------------------------------------------------------|

Verse (x 1)
e|----------------------------------------------------------------------------------|
B|----------------------------------------------------------------------------------|
G|--5-5-5-5-5-5-5-5--4-4---2-2-2-2-2-2-2-2------------------------------------------|
D|--5-5-5-5-5-5-5-5--5-5---2-2-2-2-2-2-2-2--5-5--3-3-3-3--5-5-5-5-------------------|
A|--3-3-3-3-5-5-5-5--2-2---0-0-0-0-0-0-0-0--5-5--3-3-3-3--5-5-5-5-------------------|
E|------------------------------------------3-3--1-1-1-1--3-3-3-3-------------------|

Pre Chorus (x 1)
e|----------------------------------------------------------------------------------|
B|----------------------------------------------------------------------------------|
G|--5-5-5-5-5-5-4-4-----------------------------------------------------------------|
D|--5-5-5-5-5-5-5-5-----------------------------------------------------------------|
A|--3-3-3-3-3-3-2-2-----------------------------------------------------------------|
E|----------------------------------------------------------------------------------|

Chorus (x 1)
e|----------------------------------------------------------------------------------|
B|----------------------------------------------------------------------------------|
G|-------------------5-5-5-5--------------------------------------------------------|
D|-7-7-7-7--3-3-3-3--5-5-5-5--5-5-5-5--7-7-7-7--3-3-3-3--5-5-5-5--x-x-x-x-----------|
A|-7-7-7-7--3-3-3-3--3-3-3-3--5-5-5-5--7-7-7-7--3-3-3-3--5-5-5-5--x-x-x-x-----------|
E|-5-5-5-5--1-1-1-1-----------3-3-3-3--5-5-5-5--1-1-1-1--3-3-3-3--x-x-x-x-----------|

Verse (x 1)

Pre Chorus (x 1)

Chorus (x 1)

Interlude (x 1)
e|----------------------------------------------------------------------------------|
B|----------------------------------------------------------------------------------|
G|----------------------------------------------------------------------------------|
D|------5-----5-----5----5------5-----5-----5-----5---------------------------------|
A|--3-3---2-2---------------3-3---2-2-----------------------------------------------|
E|--------------5-5---3-3---------------5-5---3-3-----------------------------------|

e|----------------------------------------------------------------------------------|
B|----------------------------------------------------------------------------------|
G|----------------------------------------------------------------------------------|
D|--5-5-5-5--5-5-5-5--5-5-5-5--5-5-5-5--5-5-5-5--5-5-5-5--5-5-5-5--5-x-x-5----------|
A|--x-x-x-x--x-x-x-x--3-3-3-3--x-x-x-x--x-x-x-x--x-x-x-x--x-x-x-x--x-x-x-x----------|
E|--5-5-5-5--1-1-1-1-----------3-3-3-3--5-5-5-5--1-1-1-1--3-3-3-3--3-x-x-3----------|

Verse (x 1)

Intro 2 (X 1)



Enjoy!


Key
x mute string
Related for Rockthefool tab