Song name
# A B C D E F G H I J K L M N O P Q R S T U V W X Y Z

Neverstore - Hold On tab

Capo on 3'rd fret <----- Important

I grew tired of all the other, sucky tabs, so I made my own. My first.
I know that this song is played with capo on 3rd fret, since I have seen these guys play 
song live.

Intro:
This is the picking part that is played.
e|----------------------------------------------------------------------------------|
B|--3-------3-----------------------------------------------------------------------|
G|----0---0---0--0------------------------------------------------------------------|
D|------4------4--------------------------------------------------------------------|
A|----------------------------------------------------------------------------------|
E|----------------------------------------------------------------------------------|

These are the chords that are played on the acoustic guitarr. Just turn them into
if you wanna play the electric guitar.
The strumming is just normal eights, nothing special.

This is played through the intro and the chorus

   C something   D/F#        Em something     G
e|--3-------------2-----------3---------------3-------------------------------------|
B|--3-------------3-----------3---------------3-------------------------------------|
G|--0-------------2-----------0---------------0-------------------------------------|
D|--2-------------0-----------2---------------0-------------------------------------|
A|--3-------------0-----------2---------------2-------------------------------------|
E|----------------2-----------0---------------3-------------------------------------|


Verse:

Same here with the rhytm. Just straight eights.

    G          D/F#     Em something (or regular Em)     D/F#
e|--3-----------2-----------3-----------------------------2-------------------------|
B|--3-----------3-----------3-----------------------------3-------------------------|
G|--0-----------2-----------0-----------------------------2-------------------------|
D|--0-----------0-----------2-----------------------------0-------------------------|
A|--2-----------0-----------2-----------------------------0-------------------------|
E|--3-----------2-----------0-----------------------------2-------------------------|

There is one part where there is some sort of bridge, its really simple and you should
able to play it by ear,
since I don't feel like tabbing out something that easy.
If you can't figure it out you must be really, really bad. Sorry.

And then there's another bridge kinda thing:

e|-------------------------------------------------------------------------------------|
B|-------------------------------------------------------------------------------------|
G|----0---0------0----0------0---0-------0---0-----------------------------------------|
D|---0---0-0----4---4--4----5---5--5----0---0--0---------------------------------------|
A|--3---3---3--5---5----5--7---7----7--3---3----3--------------------------------------|
E|-------------------------------------------------------------------------------------|

Thats... about it. Listen to the song a few times and memorize the order.
Im not one of those tabbers that give you everything you need, you have to evolve a
by yourself too.
Remember to not always follow tabs by every little note.
Add your own spirit into it, make it your own, play it as YOU want to, don't become
one of those fucking robots.
That being said, ta-ta.
By Henrik Karlsson
Tap to rate this tab
# A B C D E F G H I J K L M N O P Q R S T U V W X Y Z