Song name
# A B C D E F G H I J K L M N O P Q R S T U V W X Y Z

Neverstore - Shallow Beautiful People tab

Intro 2X

E -----------------------|
B -----------------------|
G -------5-5--7-7--4-4---|
D --4-4--5-5--7-7--4-4---|
A --4-4--3-3--5-5--2-2---|
E --2-2------------------|

Verse-Chorus

E --------------------------------------------------------|
B --------------------------------------------------------|
G ---------------------5-5--5555---7-7--7777---4-4--4444--|
D --xx-xx--4-4--4444---5-5--5555---7-7--7777---4-4--4444--|
A --xx-xx--4-4--4444---3-5--3333---5-5--5555---2-2--2222--|
E --xx-xx--2-2--2222--------------------------------------|

I've forgoten to add this part in the previous tab, so here it is
After the second chorus it goes like this:

E ---------------------------------------|
B ---------------------------------------|
G ---------------------------------------|
D --7/5-------2/3-------7/5-------3/5/3--|
A -------3/5-------5/3-------3/5---------|
E ---------------------------------------|


There's a clean riff part .. I think it goes like this

E ----5-------|
B ---4-4--4---|
G --3----3-3--|
D ------2-----|
A ------------|
E ------------|

Bridge (Listen to the song, so you'll know how many times you'll need to play a single chord):

E --------------|
B --------------|
G --------4--6--|   2X
D --5--7--4--6--|  
A --5--7--2--4--|
E --3--5--------|

E --------|
B --------|
G --------|   2X
D --5--7--|  
A --5--7--|
E --3--5--|


Then you go back with chorus and end with

E -------|
B -------|
G -------|
D --4-4--|
A --4-4--|
E --2-2--|
Tap to rate this tab
 
# A B C D E F G H I J K L M N O P Q R S T U V W X Y Z