Song name
# A B C D E F G H I J K L M N O P Q R S T U V W X Y Z

Neverstore - So Much Of Not Enough tab

ARTIST: NEVERSTORE
sONG: SO MUCH OF NOT ENOUGH
ALBUM: SEVENHUNDRED SUNDAYS
TABBET BY: FITTNYLLET

Bands homepage: http://www.neverstore.com/


Intro (clean)

E------------------|----------------------|
B-----2----3-------|-2-----2------2h3-----|
G---2---2----2---2-|---2-----2------------|  4x
D-0------------0---|-----0-----0----------|
A------------------|----------------------|
E------------------|----------------------|

(dist.)

E-----------------|-----------------|-----------------|-----------------|
B-----------------|-----------------|-----------------|-----------------|
G-7-7-7-7-7-7-7-7-|-6-6-6-6-6-6-6-6-|-7-7-7-7-7-7-7-7-|-7-7-7-7-4-4-4-4-| 2x
D-7-7-7-7-7-7-7-7-|-7-7-7-7-7-7-7-7-|-7-7-7-7-7-7-7-7-|-7-7-7-7-7-7-7-7-|  
A-5-5-5-5-5-5-5-5-|-4-4-4-4-4-4-4-4-|-5-5-5-5-5-5-5-5-|-5-5-5-5-4-4-4-4-|
E-----------------|-----------------|-----------------|-----------------|



Vers 1 (dist.)

 pm pm pm pm pm pm pm pm pm pm pm pm pm pm pm pm pm pm pm pm pm pm pm pm 
E-----------------|-----------------|-----------------|-----------------|
B-----------------|-----------------|-----------------|-----------------|
G-4-4-4-4-4-4-4-4-|-7-7-7-7-7-7-7-7-|-----------------|-----------------|  
D-4-4-4-4-4-4-4-4-|-7-7-7-7-7-7-7-7-|-5-5-5-5-5-5-5-5-|-5-5-5-5-5-5-5-5-| 3x
A-2-2-2-2-2-2-2-2-|-5-5-5-5-5-5-5-5-|-5-5-5-5-5-5-5-5-|-5-5-5-5-5-5-5-5-|
E-----------------|-----------------|-3-3-3-3-3-3-3-3-|-3-3-3-3-3-3-3-3-|

E-----------------|-----------------|-----------------|-----------------|
B-----------------|-----------------|-----------------|-----------------|
G-----------------|-----------------|-----------------|-----------------|
D-2-2-2-2-2-2-2-2-|-4-4-4-4-4-4-4-4-|-5-5-5-5-5-5-5-5-|-7-7-7-7-7-7-7-7-|
A-2-2-2-2-2-2-2-2-|-5-5-5-5-5-5-5-5-|-5-5-5-5-5-5-5-5-|-7-7-7-7-7-7-7-7-|
E-0-0-0-0-0-0-0-0-|-2-2-2-2-2-2-2-2-|-3-3-3-3-3-3-3-3-|-5-5-5-5-5-5-5-5-|


Pre Chorus (dist.)

E-----------------|-----------------|-----------------|-----------------|
B-----------------|-----------------|-----------------|-----------------|
G-----------------|-----------------|-----------------|-----------------|
D-----------------|-----------------|-----------------|-----------------| 2x
A-2-2-2-2-2-2-2-2-|-2-2-2-2-2-------|-5-5-5-5-5-5-5-5-|-5-5-5-5-5-7-7-7-|
E-----------------|-----------3-3-3-|-----------------|-----------------|


Chorus (dist.)

E-----------------|-----------------|-----------------|-----------------|
B-----------------|-----------------|-----------------|-----------------|
G-4-4-4-4-4-4-4-4-|-4-4-4-4-4-------|-7-7-7-7-7-7-7-7-|-7-7-7-7-7-9-9-9-|
D-4-4-4-4-4-4-4-4-|-4-4-4-4-4-5-5-5-|-7-7-7-7-7-7-7-7-|-7-7-7-7-7-9-9-9-| 2x
A-2-2-2-2-2-2-2-2-|-2-2-2-2-2-5-5-5-|-5-5-5-5-5-5-5-5-|-5-5-5-5-5-7-7-7-|
E-----------------|-----------3-3-3-|-----------------|-----------------|

  Let ring			      Let ring	
E-----------------|-----------------|-----------------|-----------------|
B-----------------|-----------------|-----------------|-----------------|
G-4---------------|-(4)-------------|-4---------------|-(4)-------------|
D-4---------------|-(4)-------------|-4---------------|-(4)-------------|
A-2---------------|-(2)-------------|-2---------------|-(2)-------------|
E-----------------|-----------------|-----------------|-----------------|



Vers 2 (dist.)

 pm pm pm pm pm pm pm pm pm pm pm pm pm pm pm pm pm pm pm pm pm pm pm pm 
E-----------------|-----------------|-----------------|-----------------|
B-----------------|-----------------|-----------------|-----------------|
G-4-4-4-4-4-4-4-4-|-7-7-7-7-7-7-7-7-|-----------------|-----------------|  
D-4-4-4-4-4-4-4-4-|-7-7-7-7-7-7-7-7-|-5-5-5-5-5-5-5-5-|-5-5-5-5-5-5-5-5-| 3x
A-2-2-2-2-2-2-2-2-|-5-5-5-5-5-5-5-5-|-5-5-5-5-5-5-5-5-|-5-5-5-5-5-5-5-5-|
E-----------------|-----------------|-3-3-3-3-3-3-3-3-|-3-3-3-3-3-3-3-3-|


E-----------------|-----------------|-----------------|-----------------|
B-----------------|-----------------|-----------------|-----------------|
G-----------------|-----------------|-----------------|-----------------|
D-2-2-2-2-2-2-2-2-|-4-4-4-4-4-4-4-4-|-5-5-5-5-5-5-5-5-|-7-7-7-7-7-7-7-7-|
A-2-2-2-2-2-2-2-2-|-5-5-5-5-5-5-5-5-|-5-5-5-5-5-5-5-5-|-7-7-7-7-7-7-7-7-|
E-0-0-0-0-0-0-0-0-|-2-2-2-2-2-2-2-2-|-3-3-3-3-3-3-3-3-|-5-5-5-5-5-5-5-5-|



Pre Chorus (dist.)

E-----------------|-----------------|-----------------|-----------------|
B-----------------|-----------------|-----------------|-----------------|
G-----------------|-----------------|-----------------|-----------------|
D-----------------|-----------------|-----------------|-----------------| 2x
A-2-2-2-2-2-2-2-2-|-2-2-2-2-2-------|-5-5-5-5-5-5-5-5-|-5-5-5-5-5-7-7-7-|
E-----------------|-----------3-3-3-|-----------------|-----------------|




Chorus (dist.)

E-----------------|-----------------|-----------------|-----------------|
B-----------------|-----------------|-----------------|-----------------|
G-4-4-4-4-4-4-4-4-|-4-4-4-4-4-------|-7-7-7-7-7-7-7-7-|-7-7-7-7-7-9-9-9-|
D-4-4-4-4-4-4-4-4-|-4-4-4-4-4-5-5-5-|-7-7-7-7-7-7-7-7-|-7-7-7-7-7-9-9-9-| 2x
A-2-2-2-2-2-2-2-2-|-2-2-2-2-2-5-5-5-|-5-5-5-5-5-5-5-5-|-5-5-5-5-5-7-7-7-|
E-----------------|-----------3-3-3-|-----------------|-----------------|
									
2nd Part

E-----------------|-----------------|-----------------|-----------------|
B-----------------|-----------------|-----------------|-----------------|
G-----------------|-----------------|-7-7-7-7-7-7-7-7-|-7-7-7-7-7-7-7-7-|
D-5-5-5-5-5-5-5-5-|-5-5-5-5-5-5-5-5-|-7-7-7-7-7-7-7-7-|-7-7-7-7-7-7-7-7-|
A-5-5-5-5-5-5-5-5-|-5-5-5-5-5-5-5-5-|-5-5-5-5-5-5-5-5-|-5-5-5-5-5-5-5-5-|
E-3-3-3-3-3-3-3-3-|-3-3-3-3-3-3-3-3-|-----------------|-----------------|

E-----------------|-----------------|-----------------|-----------------|
B-----------------|-----------------|-----------------|-----------------|
G-6-6-6-6-6-6-6-6-|-6-6-6-6-6-6-6-6-|-4-4-4-4-4-4-4-4-|-4-4-4-4-4-4-4-2-|
D-7-7-7-7-7-7-7-7-|-7-7-7-7-7-7-7-7-|-4-4-4-4-4-4-4-4-|-4-4-4-4-4-4-4-2-|
A-4-4-4-4-4-4-4-4-|-4-4-4-4-4-4-4-4-|-2-2-2-2-2-2-2-2-|-2-2-2-2-2-2-2-0-|
E-----------------|-----------------|-----------------|-----------------|

3rd Part

E-----------------|-----------------|-----------------|-----------------|
B-----------------|-----------------|-----------------|-----------------|
G-----------------|-----------------|-7-7-7-7-7-7-7-7-|-7-7-7-7-7-7-7-7-|
D-5-5-5-5-5-5-5-5-|-5-5-5-5-5-5-5-5-|-7-7-7-7-7-7-7-7-|-7-7-7-7-7-7-7-7-|
A-5-5-5-5-5-5-5-5-|-5-5-5-5-5-5-5-5-|-5-5-5-5-5-5-5-5-|-5-5-5-5-5-5-5-5-|
E-3-3-3-3-3-3-3-3-|-3-3-3-3-3-3-3-3-|-----------------|-----------------|

E-----------------|-----------------|-----------------|-----------------|
B-----------------|-----------------|-----------------|-----------------|
G-6-6-6-6-6-6-6-6-|-6-6-6-6-6-6-6-6-|-----------------|-----------------|
D-7-7-7-7-7-7-7-7-|-7-7-7-7-7-7-7-7-|-7-7-7-7-7-7-7-7-|-7-7-7-7-7-7-7-7-|
A-4-4-4-4-4-4-4-4-|-4-4-4-4-4-4-4-4-|-7-7-7-7-7-7-7-7-|-7-7-7-7-7-7-7-7-|
E-----------------|-----------------|-5-5-5-5-5-5-5-5-|-5-5-5-5-5-5-5-5-|

  

  Let Ring			      Let Ring
E-----------------|-----------------|-----------------|-----------------|
B-----------------|-----------------|-----------------|-----------------|
G-7---------------|-(7)-------------|-7---------------|-(7)-------------|
D-7---------------|-(7)-------------|-7---------------|-(7)-------------|
A-5---------------|-(5)-------------|-5---------------|-(5)-------------|
E-----------------|-----------------|-----------------|-----------------|



Stick (dist.)

E------------------|----------------------|
B-----2----3-------|-2-----2------2-------|
G---2---2----2---2-|---2-----2------------|  4x
D-0------------0---|-----0-----0----------|
A------------------|----------------------|
E------------------|----------------------|


Chorus (dist.)

E-----------------|-----------------|-----------------|-----------------|
B-----------------|-----------------|-----------------|-----------------|
G-4-4-4-4-4-4-4-4-|-4-4-4-4-4-------|-7-7-7-7-7-7-7-7-|-7-7-7-7-7-9-9-9-|
D-4-4-4-4-4-4-4-4-|-4-4-4-4-4-5-5-5-|-7-7-7-7-7-7-7-7-|-7-7-7-7-7-9-9-9-| 
A-2-2-2-2-2-2-2-2-|-2-2-2-2-2-5-5-5-|-5-5-5-5-5-5-5-5-|-5-5-5-5-5-7-7-7-|
E-----------------|-----------3-3-3-|-----------------|-----------------|
							                  4x
E-----------------|-----------------|-----------------|-----------------|
B-----------------|-----------------|-----------------|-----------------|
G-----------------|-----------------|-7-7-7-7-7-7-7-7-|-7-7-7-7-7-7-7-7-|
D-5-5-5-5-5-5-5-5-|-5-5-5-5-5-5-5-5-|-7-7-7-7-7-7-7-7-|-7-7-7-7-7-7-7-7-|
A-5-5-5-5-5-5-5-5-|-5-5-5-5-5-5-5-5-|-5-5-5-5-5-5-5-5-|-5-5-5-5-5-5-5-5-|
E-3-3-3-3-3-3-3-3-|-3-3-3-3-3-3-3-3-|-----------------|-----------------|


Outro (dist.)

E-----------------|-----------------|-----------------|-----------------|
B-----------------|-----------------|-----------------|-----------------|
G-----------------|-----------------|-----------------|-----------------|
D-----------------|-----------------|-----------------|-----------------| 2x
A-2-2-2-2-2-2-2-2-|-2-2-2-2-2-------|-5-5-5-5-5-5-5-5-|-5-5-5-5-5-7-7-7-|
E-----------------|-----------3-3-3-|-----------------|-----------------|



Legend:

Pm= Palm mute
h= hammer on
()= let ring through
Tap to rate this tab
 
# A B C D E F G H I J K L M N O P Q R S T U V W X Y Z