Song name
# A B C D E F G H I J K L M N O P Q R S T U V W X Y Z

Neverstore - Lyd tab

#tabbed by pointblaster
#tunning: standard EADGBe
#artist: neverstore
#song:L.Y.D
#this is my first tab. if you find anything wierd in it please contact me.


E:---------------------|
B:---------------------|
G:---------------------|   X2
D:-7-7-7-7-4-4-5-5-----|
A:--5-5-5-5-5-5-5-5----|
E:---------------------|


E:---------------------------------------|
B:---------------------------------------|
G:---------------------------------------|
D:-4-4-4-4-2-2-2-4-4-4-0-0-0-2-2-2-4-4-4-|
A:--5-5-5-5-0-0-0------------------------|
E:---------------------------------------|


thats the intro! it's like the same thing in the verse. have a good time learning this tab :)
Tap to rate this tab
# A B C D E F G H I J K L M N O P Q R S T U V W X Y Z