Song name
# A B C D E F G H I J K L M N O P Q R S T U V W X Y Z

Nevertheless - Real tab

Help us improve GuitareTab! Take a short survey!
-------------------------------------------------------------------------------
			     REAL - Bumblefoot
-------------------------------------------------------------------------------
Tabbed by: sopranoman1771
Email: guitardude234@yahoo.com

Tuning: Standard

e|---------------------------------------------------------------------------|
B|---------------------------------------------------------------------------|
G|------11h12------------11h12----------11h12-----------11h12----------------|
D|--10----------13----10-------13----10--------13----10----------------------|
A|---------------------------------------------------------------------------|
E|---------------------------------------------------------------------------|

e|---------------------------------------------------------------------------|
B|---------------------------------------------------------------------------|
G|-------11h12-------------11h12-------------11h12-----------11h12-----------|
D|---9----------12------9--------12--------9-------12------9-------12--------|
A|---------------------------------------------------------------------------|
E|---------------------------------------------------------------------------|

e|------------------------------------------------------------------------|---|
B|----------------------------------8-9-8-7-8-----------------------------|---|
G|--------------------------------------------0-7-8--------------------*--|---|
D|-----5---6----5-6--5-6--5--6----------------------10------0/10-------*--|---|
A|------------------------------------------------------------------------|---|
E|-----3---4----3--4--3-4--3--4-------------------------------------------|---|




| /  slide up
| \  slide down
| h  hammer-on
| p  pull-off
| ~  vibrato
| +  harmonic
| x  Mute note
===============================================================================
Related for Real tab