Song name
# A B C D E F G H I J K L M N O P Q R S T U V W X Y Z

New Amsterdams - Losing You tab

Help us improve GuitareTab! Take a short survey!
Losing You - New Amsterdams

This goes perfectly with the song.

Intro
e|------------------------------------|
b|------------------------------------|
g|------------------------------------|
d|---2-2-------5-7-5-----5-------2-0--|x2
a|-3--3-3---/7--7---------8-7-------2-|
E|---------------------5-------3------|
Verse (slight variations using the same notes throughout)
e|------------------------------------|
b|------------------------------------|
g|------------------------------------|
d|-----2------------------------------|x4
a|-3---------------------7-7------2-2-|
E|-------------0-------5--5-5---3--3-3|
Prechorus
e|----------------|
b|----------------|
g|----------------|
d|---2------------|x3
a|-----3-----3-2h3|
E|-1-------3------|
pt.2
e|------------------|
b|------------------|
g|------------------|
d|---2-------2-0-2--|x1
a|-----3--------2---|
E|-1-------3--------|
Intro
Verse
Prechorus
Chorus
e|---------|
b|---------|
g|---------|
d|-2-------|
a|-3-2-7-2-|
E|---0-5-3-|
Prechorus
Intro
Verse
Prechorus
Chorus
Prechorus
Intro
End on C
Related for Losing You tab