Song name
# A B C D E F G H I J K L M N O P Q R S T U V W X Y Z

New Amsterdams - Past The Pines tab

Tabbed By: Cybershock

Tuning: Standard


Past the Pines by The New Amsterdams

This is a really simple song once you know it.

S-Slide
P-Pull off
H-Hammer on


Intro:

e|---------------------------------------------------------------|
B|---------------------------------------------------------------|
G|---------------------------------------------------------------|
D|---------------------------------------------------------------|    x2
A|----8----3-3------------------------8----3-3-------------------|
E|--------------------1----8-8------------------------1----8-8---|


Verse:

e|---------------------------------------------------------------|
B|---------------------------------------------------------------|
G|---------------------------------------------------------------|
D|---------------------------------------------------------------|
A|----8----3-3------------------------8----3-3-2-0----0-2-3-5-7--|
E|--------------------1----8-8-----------------------------------|

Drive Around Past the Pines....


e|---------------------------------------------------------------|
B|---------------------------------------------------------------|
G|---------------------------------------------------------------|
D|---------------------------------------------------------------|
A|----8----3-3------------------------8----3-3--2----------------|
E|--------------------1----8-8----------------------3--3-3-------|

Innocence never died....




Chorus:


e|---------------------------------------------------------------|
B|-------------------------------8p6--5--3----1h3h5--------------|
G|------5----5-7--7s9----7--5------------------------------------|
D|---------------------------------------------------------------|
A|---------------------------------------------------------------|
E|---------------------------------------------------------------|


Whoa I believe....


e|---------------------------------------------------------------|
B|---------------------------------------------------------------|
G|------5----5-7--7s9----7--5------------------------------------|
D|---------------------------------------------------------------|
A|---------------------------------------------------------------|
E|---------------------------------------------------------------|

So Hard to Breathe.........




Verse:

e|---------------------------------------------------------------|
B|---------------------------------------------------------------|
G|---------------------------------------------------------------|
D|---------------------------------------------------------------|
A|----8----3-3------------------------8----3-3-2-0----0-2-3-5-7--|
E|--------------------1----8-8-----------------------------------|

Family, Friends are Fools....


e|---------------------------------------------------------------|
B|---------------------------------------------------------------|
G|---------------------------------------------------------------|
D|---------------------------------------------------------------|
A|----8----3-3------------------------8----3-3--2----------------|
E|--------------------1----8-8----------------------3--3-3-------|

Speak to Me Secretly....



Chorus:


e|---------------------------------------------------------------|
B|-------------------------------8p6--5--3----1h3h5--------------|
G|------5----5-7--7s9----7--5------------------------------------|
D|---------------------------------------------------------------|
A|---------------------------------------------------------------|
E|---------------------------------------------------------------|


Whoa I believe....


e|---------------------------------------------------------------|
B|---------------------------------------------------------------|
G|------5----5-7--7s9----7--5------------------------------------|
D|---------------------------------------------------------------|
A|---------------------------------------------------------------|
E|---------------------------------------------------------------|

So Tongue in Cheek.........



Verse:

e|---------------------------------------------------------------|
B|---------------------------------------------------------------|
G|---------------------------------------------------------------|
D|---------------------------------------------------------------|
A|----8----3-3------------------------8----3-3-2-0----0-2-3-5-7--|
E|--------------------1----8-8-----------------------------------|

We Know A Secret....


e|---------------------------------------------------------------|
B|---------------------------------------------------------------|
G|---------------------------------------------------------------|
D|---------------------------------------------------------------|
A|----8----3-3------------------------8----3-3--2----------------|
E|--------------------1----8-8----------------------3--3-3-------|

View From the....



e|---------------------------------------------------------------|
B|-------------------------------8p6--5--3----1h3h5--------------|
G|------5----5-7--7s9----7--5------------------------------------|
D|---------------------------------------------------------------|
A|---------------------------------------------------------------|
E|---------------------------------------------------------------|


Whoa I believe....


e|---------------------------------------------------------------|
B|---------------------------------------------------------------|
G|------5----5-7--7s9----7--5------------------------------------|
D|---------------------------------------------------------------|
A|---------------------------------------------------------------|
E|---------------------------------------------------------------|

The King and Queen.........


e|---------------------------------------------------------------|
B|---------------------------------------------------------------|
G|---------------------------------------------------------------|
D|---------------------------------------------------------------|    x2
A|----8----3-3------------------------8----3-3-------------------|
E|--------------------1----8-8------------------------1----8-8---|

....Wasteland

....Wasteland


Outro

e|-12-12-12-12-12----10--8----7--8s10----8--7--5--3-3-3----------|
B|---------------------------------------------------------------|
G|---------------------------------------------------------------|
D|---------------------------------------------------------------|
A|---------------------------------------------------------------|
E|---------------------------------------------------------------|



e|-12-12-12-12-12----10--8----7--8s10----8--7--5--3s8------------|
B|---------------------------------------------------------------|
G|---------------------------------------------------------------|
D|---------------------------------------------------------------|
A|---------------------------------------------------------------|
E|---------------------------------------------------------------|
Tap to rate this tab
# A B C D E F G H I J K L M N O P Q R S T U V W X Y Z