Song name
# A B C D E F G H I J K L M N O P Q R S T U V W X Y Z

New Amsterdams - Drama Queen tab

Intro
e|-------------------------------------------------------------------------|
B|-------4-------------4------------4-------------4------------------------|
G|-----4---4--------4----4-------4----4---------4---4----------------------|
D|---4-------4----4--------4---4---------4----4-------4--------------------|
A|-2------------2------------2--------------2------------------------------|
E|-------------------------------------------------------------------------|
Verse
e|-------------------------------------------------------------------------|
B|-------4------------8------------9------------4--------------------------|
G|-----4---4--------8---8--------9---9--------4---4------------------------|
D|---4-------4----8-------8----9-------9----4-------4----------------------|
A|-2------------6------------7------------2--------------------------------|
E|-------------------------------------------------------------------------|

e|-------------------------------------------------------------------------|
B|-------4-------------------------4-------------4-------------------------|
G|-----4---4----------3----------4---4---------4---4-----------------------|
D|---4------4-------4---4------4-------4-----4-------4---------------------|
A|-2--------------4-------4--2-------------2-------------------------------|
E|--------------2----------------------------------------------------------|
Chorus
e|-------------------------------------------------------------------------|
B|---------------------4---------------------------------------------------|
G|-------------------4---4-----------------------3-------------------------|
D|-----2-2---------4-------4-------2-----------4----4----------------------|
A|---2-----2-----2---------------2---2------4---------4--------------------|
E|-0---------0-----------------0-------0--2--------------------------------|

B

B      Eb  E    B
Get over some how
B    F#    B
my drama queen
B      Eb  E    B
old wounds and rebounds
B    F#    B
old hat new scene
Em         B
I got the time
Em         F#
you've got the notion
B   Eb E   B
new faces repeat
B    F#    B
my drama queen

B F# B
Tap to rate this tab
# A B C D E F G H I J K L M N O P Q R S T U V W X Y Z