Song name
# A B C D E F G H I J K L M N O P Q R S T U V W X Y Z

New Amsterdams - Stay On The Phone tab

Tabbed by: photographerggg@hotmail.com
Tuning: Standard With CAPO ON 4th FRET
Intro              RIFF         RIFF
e|--------------5--5---------5--5-------------------------|
B|--3—-3-—3--5--3--3-5-3--3—-3--3-5-5—-3-3----------------|
G|--2--2--2--4--0--0-0-0--2--0--0-0-0—-2-2----------------|
D|--0--0--2--0--0--0-0-0--0--0--0-0-0--2-0----------------|
A|--2--1--0--X--X--X-X-X--X--X--X-X-X--0-1----------------|
E|-----------4--3--3-3-3--2--3--3-3-3---------------------|

Verse (2X)
e|--------------5-----5-----------------------------------|
B|--3—-3-—3--5--3--3—-3--3-3------------------------------|
G|--2--2--2--4--0--2--0--2-2------------------------------|
D|--0--0--2--0--0—-0--0--2-0------------------------------|
A|--2--1--0--X--X--X--X--0-1------------------------------|
E|-----------4--3--2--3-----------------------------------|

Intro

Verse

Chorus
e|-----2------------------2-------------------------------|
B|--3—-3-—3--3--3--3---3--3--3--3--3--3-3-----------------|
G|--2--2--0--2--0--2---2--2--0--2--0--2-2-----------------|
D|--0--0--0--0--0--2---0--0--0--0--0--2-0-----------------|
A|--2-----X--X--X--0---2-----X--X--X--0-1-----------------|
E|--------3--2--3------------3--2--3----------------------|

Intro

Verse

Chorus

Intro

Verse (1x) End on B/D

…tired of seeing shitty tabs for such a good song
Tap to rate this tab
# A B C D E F G H I J K L M N O P Q R S T U V W X Y Z