Song name
# A B C D E F G H I J K L M N O P Q R S T U V W X Y Z

New Amsterdams - Turn Out The Lights tab

This is how i think this song is played:

Intro 3x

eb-----------2p0-----------------------2p0-----------------------------------------------|
bb----3----------3--------------3----------3---------------------------------------------|
gb-------2----------2---2----------2----------2---2--------------------------------------|
db--0------0----------0-------0------0----------0----------------------------------------|
ab---------------------------------------------------------------------------------------|
Eb---------------------------------------------------------------------------------------|

Verse 2x

eb---------------------------------------------------------------------------------------|
bb----3-------3---------3-------3---------3------3---------3------3----------------------|
gb-------2-------2---------2-------2---------0------0---------0------0-------------------|
db--0------0----------0------0-----------------------------------------------------------|
ab--------------------------------------2------2---------2------2-------2----------------|
Eb---------------------------------------------------------------------------------------|

eb---------------------------------------------------------------------------------------|
bb----2------2---------2------2----------------------------------------------------------|
gb-------2------2---------2------2-------------------------------------------------------|
db---------------------------------------------------------------------------------------|
ab--0------0---------0------0------------------------------------------------------------|
Eb---------------------------------------------------------------------------------------|

eb-----------2p0-----------------------2p0-----------------------------------------------|
bb----3----------3--------------3----------3---------------------------------------------|
gb-------2----------2---2----------2----------2---2--------------------------------------|
db--0------0----------0-------0------0----------0----------------------------------------|
ab---------------------------------------------------------------------------------------|
Eb---------------------------------------------------------------------------------------|

Chorus

eb--3--2--3--2--3--2--2--0---------------------------------------------------------------|
bb--3--3--3--3--3--3--3--2---------------------------------------------------------------|
gb--0--2--0--2--0--4--4--2---------------------------------------------------------------|
db--0--0--0--0--0--4--4--2---------------------------------------------------------------|
ab--x--0--x--0--x--2--2--0---------------------------------------------------------------|
Eb--3-----3-----3------------------------------------------------------------------------|

There is another tab up showing the chords to play the song with too, if playing with 2 
Have Fun!
Tap to rate this tab
# A B C D E F G H I J K L M N O P Q R S T U V W X Y Z