Guitaretab - guitar tabs
Song name
# A B C D E F G H I J K L M N O P Q R S T U V W X Y Z

New Amsterdams - Watch The World Cave In tab

Watch the world cave in
The New Amsterdams

i tried to line the words up with the notes as best as possible
easy to play


e|---------------------------------------------------------------------|
B|----3-----3----3-----3----3-----3----3-----3----3-----3----3-----3---|
G|------2----------2----------0----------0----------0----------0-------|
D|-0------0---0------0----------0----------0----------0----------0-----|
A|-----------------------2----------2----------------------------------|
E|---------------------------------------------3----------3------------|

e|-------------------------|
B|----3-----3----2-----2---|
G|------0----------0-------|
D|--------0----------0-----|
A|-0----------0------------|
E|-------------------------|

  The worlds cavin in, i got tickets for 2.    Theyre not the best seats
e|---------------------------------------------------------------------|
B|----3-----3----3-----3----3-----3----3-----3----3-----3----3-----3---|
G|------2----------2----------0----------0----------0----------0-------|
D|-0------0---0------0----------0----------0----------0----------0-----|
A|-----------------------2----------2----------------------------------|
E|---------------------------------------------3----------3------------|

and theyre not the best view
e|-------------------------|
B|----3-----3----2-----2---|
G|------0----------0-------|
D|--------0----------0-----|
A|-0----------0------------|
E|-------------------------|

   Take my hand, you can squeeze on my arm.     Wake from your slumber,
e|---------------------------------------------------------------------|
B|----3-----3----3-----3----3-----3----3-----3----3-----3----3-----3---|
G|------2----------2----------0----------0----------0----------0-------|
D|-0------0---0------0----------0----------0----------0----------0-----|
A|-----------------------2----------2----------------------------------|
E|---------------------------------------------3----------3------------|

   baby, it's gonna start.      It was
e|-------------------------|
B|----3-----3----2-----2---|
G|------0----------0-------|
D|--------0----------0-----|
A|-0----------0------------|
E|-------------------------|

   worth      the        price         of      admission
e|------------------------------------------------2--------------------|
B|----3-----3----3-----3----3-----3----2-----2------3---3----3-----3---|
G|------0----------0----------0----------0------------2--------2-------|
D|--------0----------0----------0----------0---0-----------------0-----|
A|-----------------------0----------0---------------------4------------|
E|-3----------3--------------------------------------------------------|


                            The
e|-------------------------|
B|----3-----3----3-----3---|
G|------0----------0-------|
D|--------0----------0-----|
A|-2----------0------------|
E|-------------------------|

   two        of         us watch the world cave in
e|------------------------------------------------2----------2---------|
B|----3-----3----3-----3----3-----3----2-----2------3---3------3---3---|
G|------0----------0----------0----------0------------2----------2-----|
D|--------0----------0----------0----------0---0----------0------------|
A|-----------------------0----------0----------------------------------|
E|-3----------3--------------------------------------------------------|

e|----2----------2---------|
B|------3---3------3---3---|
G|--------2----------2-----|
D|-0----------0------------|
A|-------------------------|
E|-------------------------|


  The world's cavin in like the prophecy calls. Barter redemption for
e|---------------------------------------------------------------------|
B|----3-----3----3-----3----3-----3----3-----3----3-----3----3-----3---|
G|------2----------2----------0----------0----------0----------0-------|
D|-0------0---0------0----------0----------0----------0----------0-----|
A|-----------------------2----------2----------------------------------|
E|---------------------------------------------3----------3------------|

   diamonds and pearls
e|-------------------------|
B|----3-----3----2-----2---|
G|------0----------0-------|
D|--------0----------0-----|
A|-0----------0------------|
E|-------------------------|

  The rich got the camel through the eye of a needle. The deed in itself was
e|---------------------------------------------------------------------|
B|----3-----3----3-----3----3-----3----3-----3----3-----3----3-----3---|
G|------2----------2----------0----------0----------0----------0-------|
D|-0------0---0------0----------0----------0----------0----------0-----|
A|-----------------------2----------2----------------------------------|
E|---------------------------------------------3----------3------------|

   inherently evil
e|-------------------------|
B|----3-----3----2-----2---|
G|------0----------0-------|
D|--------0----------0-----|
A|-0----------0------------|
E|-------------------------|

[ Tab from: http://www.guitaretab.com/n/new-amsterdams/79209.html ]
When alls     been       said          and        written
e|------------------------------------------------2--------------------|
B|----3-----3----3-----3----3-----3----2-----2------3---3----3-----3---|
G|------0----------0----------0----------0------------2--------2-------|
D|--------0----------0----------0----------0---0-----------------0-----|
A|-----------------------0----------0---------------------4------------|
E|-3----------3--------------------------------------------------------|


                            The
e|-------------------------|
B|----3-----3----3-----3---|
G|------0----------0-------|
D|--------0----------0-----|
A|-2----------0------------|
E|-------------------------|

   two        of         us watch the world cave in
e|------------------------------------------------2----------2---------|
B|----3-----3----3-----3----3-----3----2-----2------3---3------3---3---|
G|------0----------0----------0----------0------------2----------2-----|
D|--------0----------0----------0----------0---0----------0------------|
A|-----------------------0----------0----------------------------------|
E|-3----------3--------------------------------------------------------|

e|----2----------2---------|
B|------3---3------3---3---|
G|--------2----------2-----|
D|-0----------0------------|
A|-------------------------|
E|-------------------------|

The worlds cavin in theyre releasing the souls. Trapped in the earth where we
e|---------------------------------------------------------------------|
B|----3-----3----3-----3----3-----3----3-----3----3-----3----3-----3---|
G|------2----------2----------0----------0----------0----------0-------|
D|-0------0---0------0----------0----------0----------0----------0-----|
A|-----------------------2----------2----------------------------------|
E|---------------------------------------------3----------3------------|

   cant hear their calls
e|-------------------------|
B|----3-----3----2-----2---|
G|------0----------0-------|
D|--------0----------0-----|
A|-0----------0------------|
E|-------------------------|

  Unbelievable torture, you wouldnt believe.  This is their passion 
e|---------------------------------------------------------------------|
B|----3-----3----3-----3----3-----3----3-----3----3-----3----3-----3---|
G|------2----------2----------0----------0----------0----------0-------|
D|-0------0---0------0----------0----------0----------0----------0-----|
A|-----------------------2----------2----------------------------------|
E|---------------------------------------------3----------3------------|

their chance to be free
e|-------------------------|
B|----3-----3----2-----2---|
G|------0----------0-------|
D|--------0----------0-----|
A|-0----------0------------|
E|-------------------------|

But theyre beaten                      into    submission
e|------------------------------------------------2--------------------|
B|----3-----3----3-----3----3-----3----2-----2------3---3----3-----3---|
G|------0----------0----------0----------0------------2--------2-------|
D|--------0----------0----------0----------0---0-----------------0-----|
A|-----------------------0----------0---------------------4------------|
E|-3----------3--------------------------------------------------------|


e|-------------------------|
B|----3-----3----3-----3---|
G|------0----------0-------|
D|--------0----------0-----|
A|-2----------0------------|
E|-------------------------|

   Free      at last    last watch the world cave in
e|---------------------------------------------------------------------|
B|----3-----3----3-----3----3-----3----3-----3-----3---3----3-----3----|
G|------0----------0----------0----------0-----------2--------2--------|
D|--------0----------0----------0----------0---0---------0------0------|
A|-----------------------0----------0----------------------------------|
E|-3----------3--------------------------------------------------------|


                            
e|-------------------------|
B|----3-----3---3---3------|
G|------2------------------|
D|-0------0---0------------|
A|----------------0--------|
E|-------------------------|

When all's    been       said       and        written
e|---------------------------------------------------------------------|
B|----3-----3----3-----3----3-----3----3-----3-----3---3----3-----3----|
G|------0----------0----------0----------2-----------2--------2--------|
D|--------0----------0----------0----------0---0----------------0------|
A|-----------------------0----------4--------------------4-------------|
E|-3----------3--------------------------------------------------------|


                            
e|-------------------------|
B|----3-----3---3---3------|
G|------0------------------|
D|--------0---0------------|
A|-2--------------0--------|
E|-------------------------|

the two       of         us watch the world cave in   
e|---------------------------------------------------2-----------------|
B|----3-----3----3-----3----3-----3----2-------------3-(let ring)------|
G|------0----------0----------0----------------------2-----------------|
D|--------0----------0----------0--------------------------------------|
A|-----------------------0----------0----------------------------------|
E|-3----------3--------------------------------------------------------|


enjoy!
Related for Watch The World Cave In tab
Advertisement will be closed in 10 seconds