Song name
# A B C D E F G H I J K L M N O P Q R S T U V W X Y Z

New Amsterdams - Wears So Thin tab

I don't take much credit for this tab.  It's basically from watching Matt play it up 
and I filled in the gaps from a tab that used to be on newams.net so it should be pretty 
to the real thing.

Intro (play for how ever long you feel like it - preferably with people talking about 
things in the background)

E---------------|
B------3--------|
G----2---2------|
D--0------------|
A---------------|
E---------------|

Intro (continued) and Verse (3x)

E----------------------------0-------|
B------3-------3-------3-------3-----|
G----2---0---0---0---0---0-------0---|
D--0---------------------------------|
A----------2-------------------------|
E------------------3-----------------|

E---------------------------0--------|
B------3-------3-------3------3------|
G----2---0---0---0---0---0------0----|
D--0---------------------------------|
A----------2-------------------------|
E------------------3-----------------|

E------------------------------------|
B------3-------3---------------------|
G----2---0---0---0-----0-------0-----|
D--0-----------------0---0---0---0---|
A----------2-------0-------0---------|
E------------------------------------|

E------------------------------------|
B------------------------------------|
G------2-------2-------0-------0-----|
D----0---0---0---0---0---0---0---0---|
A------------------------------------|
E--2-------2-------3-------3---------|

Chorus

E------------------------------------|
B------------------------------------|
G------2-------2-------2-------2-----|
D----0---0---0---0---0---0---0---0---|
A------------------------------------|
E--2-------2-------2-------2---------|

E------------------------------------|
B------------------------------------|
G------0-------0-------0-------0-----|
D----0---0---0---0---0---0---0---0---|
A------------------------------------|
E--0-------0-------0-------0---------|

E------------------------------------|
B------3-------3-------3-------3-----|
G----0---0---0---0---0---0---0---0---|
D------------------------------------|
A--2-------2-------2-------2---------|
E------------------------------------|

E------------2-----------2---2-------|
B------3-------3-------3-------3-----|
G----2---2-------2---2-----------2---|
D--0-------0-------0-----------------|
A------------------------------------|
E------------------------------------|

E------------------------------------|
B------------------------------------|
G------2-------2-------2-------2-----|
D----0---0---0---0---0---0---0---0---|
A------------------------------------|
E--2-------2-------2-------2---------|

E------------------------------------|
B------------------------------------|
G------0-------0-------0-------0-----|
D----0---0---0---0---0---0---0---0---|
A------------------------------------|
E--0-------0-------0-------0---------|


Outro (play as many times as you like) - this is more or less what i play, but usually i 
a little improv to it each time.

E------------2-----------2---2-------|
B------3-------3-------3-------3-----|
G----2---2-------2---2-----------2---|
D--0-------0-------0-----------------|
A------------------------------------|
E------------------------------------|
Tap to rate this tab
# A B C D E F G H I J K L M N O P Q R S T U V W X Y Z