Song name
# A B C D E F G H I J K L M N O P Q R S T U V W X Y Z

New Amsterdams - Girl Whyd You Run Away tab

Help us improve GuitareTab! Take a short survey!
Highlighted       Show chord diagrams
The New Amsterdams - Girl, Why'd You Run Away?
Written Originally by: James Dewees (Reggie and the Full Effect & the Get Up Kids)

Verse/ Chorus
   Gmaj  F#/G   Emin        Amin
      Dmaj
  |--3-------3-|-0----------|-0-----------|-3----------2-------------|
  |--0-------0-|-3----------|-1-----------|-3----------3-------------|
  |--0-------0-|-0----------|-2-----------|-0----------2-------------|
  |--0-------0-|-2----------|-2-----------|-2----------0-------------|
  |--2-------2-|-2----------|-0-----------|-3------------------------|
  |--3-------2-|-0----------|-------------|--------------------------|
Beat 1       4   1            1             1          3

Bridge


  |-----|-3--2-|-3---|-0---|-0----|-3--2-|-3---||
  |-1---|-3--3-|-0---|-3---|-1----|-3--3-|-0---||
  |-2---|-0--2-|-0---|-0---|-2----|-0--2-|-0---||
  |-2---|-2--0-|-0---|-2---|-2----|-2--0-|-0---||
  |-0---|-3----|-2---|-2---|-0----|-3----|-2---||
  |-----|------|-3---|-0---|------|------|-3---||

One of my favourite Reggie songs of all time and probably one of my favourite emo songs
all time as well. This tab is as correct as it's gonna get. There may be some passing
that I've missed but listen for them and you'll get them. In many cases, you can voice 
(as in any song) with Cmaj chords but because it is in the key of G major, the
allows the D-note, dominant, to ring out which makes it sound really good.

Any questions: justinzuccon@msn.com
Related for Girl Whyd You Run Away tab