Song name
# A B C D E F G H I J K L M N O P Q R S T U V W X Y Z

New Found Glory - Dig My Own Grave tab

New Found Glory - Dig My Own Grave
Album: Tip of the Iceberg
Tabbed by: C. TYSOR
Drop D Tuning



Intro!
E|------------------------------------------------------------------|
B|------------------------------------------------------------------|
G|------------------------------------------------------------------|
D|--7s4-4-4--2h4-4-4------------------------------------------------| X2
A|--7s4-4-4--2h4-4-4--0000-0~-0-0--0-0000-0~-0-0--0-0000-0~-0-0--0--|
D|--7s4-4-4--2h4-4-4--0000-0~-0-0--0-0000-0~-0-0--0-0000-0~-0-0--0--|       
                      ....    . .  . ....    . .  . ....    . .  .

E|------------------------------------------------------------------|
B|------------------------------------------------------------------|
G|------------------------------------------------------------------|
D|--7s4-4-4--2h4-4-4--7-7-7-7---0~--4-4-4-4--7----------------------|
A|--7s4-4-4--2h4-4-4--7-7-7-7---0~--2-2-2-2--5--7--7-7-7------------|
D|--7s4-4-4--2h4-4-4--7-7-7-7---0~--------------7--7-7-7------------| 


E|------------------------------------------------------------------|
B|------------------------------------------------------------------|
G|------------------------------------------------------------------|
D|-0~--5-5-5-5---4--2--2-2-2----0~--4-4-4-4--7----------------------|
A|-0~--5-5-5-5---2--0--0-0-0----0~--2-2-2-2--5--7--7-7-7------------|
D|-0~--5-5-5-5------------------0~--------------7--7-7-7------------| 


E|------------------------------------------------------------------|
B|------------------------------------------------------------------|
G|------------------------------------------------------------------|
D|-0~--5-5-5-5---4--2--2-2-2----------------------------------------|
A|-0~--5-5-5-5---2--0--0-0-0----------------------------------------|
D|-0~--5-5-5-5------------------------------------------------------| 

Verse!
E|------------------------------------------------------------------|
B|------------------------------------------------------------------|
G|------------------------------------------------------------------|
D|-------------------------------------------------7s4-4-4--2h4-4-4-| X2
A|----0000-0~-0-0--0-0000-0~-0-0--0-0000-0~-0-0--0-7s4-4-4--2h4-4-4-| 
D|----0000-0~-0-0--0-0000-0~-0-0--0-0000-0~-0-0--0-7s4-4-4--2h4-4-4-|     
      ....    . .  . ....    . .  . ....    . .  .

E|------------------------------------------------------------------|
B|------------------------------------------------------------------|
G|------------------------------------------------------------------|
D|------------------------------------------------------------------|
A|---9999-9~-9-9--9-9999-9~-9-9--9-9999-9~-9-9--9--9999-9~-4444-4~--| 
D|---9999-9~-9-9--9-9999-9~-9-9--9-9999-9~-9-9--9--9999-9~-4444-4~--|     
     ....    . .  . ....    . .  . ....    . .  .  ....    ....


E|------------------------------------------------------------------|
B|------------------------------------------------------------------|
G|------------------------------------------------------------------|
D|------------------------------------------------------------------|
A|----0000-0~-0-0--0-0000-0~-0-0--0-0000-0~-0-0--0------------------| 
D|----0000-0~-0-0--0-0000-0~-0-0--0-0000-0~-0-0--0------------------|     
      ....    . .  . ....    . .  . ....    . .  .

Chorus!
E|------------------------------------------------------------------|
B|------------------------------------------------------------------|
G|------------------------------------------------------------------|
D|--7s4-4-4--2h4-4-4--7-7-7-7---0~--4-4-4-4--7----------------------|
A|--7s4-4-4--2h4-4-4--7-7-7-7---0~--2-2-2-2--5--7--7-7-7------------|
D|--7s4-4-4--2h4-4-4--7-7-7-7---0~--------------7--7-7-7------------| 


E|------------------------------------------------------------------|
B|------------------------------------------------------------------|
G|------------------------------------------------------------------|
D|-0~--5-5-5-5---4--2--2-2-2----0~--4-4-4-4--7----------------------|
A|-0~--5-5-5-5---2--0--0-0-0----0~--2-2-2-2--5--7--7-7-7------------|
D|-0~--5-5-5-5------------------0~--------------7--7-7-7------------| 


E|------------------------------------------------------------------|
B|------------------------------------------------------------------|
G|------------------------------------------------------------------|
D|-0~--5-5-5-5---4--2--2-2-2---0-0--0~--4s-7------------0~--5-5-5-5-|
A|-0~--5-5-5-5---2--0--0-0-0---0-0--0~--2s-5--7--7-7-7--0~--5-5-5-5-|
D|-0~--5-5-5-5-----------------0-0--0~--------7--7-7-7--0~--5-5-5-5-| 
                               . .


E|------------------------------------------------------------------|
B|------------------------------------------------------------------|
G|------------------------------------------------------------------|
D|--4--2--2-2-2---0~--4-4-4-4--7------------0~---5-5-5--4--2--2-2-2-|
A|--2--0--0-0-0---0~--2-2-2-2--5--7--7-7-7--0~---5-5-5--2--0--0-0-0-|
D|----------------0~--------------7--7-7-7--0~---5-5-5--------------|


 Verse!
E|------------------------------------------------------------------|
B|------------------------------------------------------------------|
G|------------------------------------------------------------------|
D|-------------------------------------------------7s4-4-4--2h4-4-4-| X2
A|----0000-0~-0-0--0-0000-0~-0-0--0-0000-0~-0-0--0-7s4-4-4--2h4-4-4-| 
D|----0000-0~-0-0--0-0000-0~-0-0--0-0000-0~-0-0--0-7s4-4-4--2h4-4-4-|     
      ....    . .  . ....    . .  . ....    . .  .

E|------------------------------------------------------------------|
B|------------------------------------------------------------------|
G|------------------------------------------------------------------|
D|------------------------------------------------------------------|
A|---9999-9~-9-9--9-9999-9~-9-9--9-9999-9~-9-9--9--9999-9~-4444-4~--| 
D|---9999-9~-9-9--9-9999-9~-9-9--9-9999-9~-9-9--9--9999-9~-4444-4~--|     
     ....    . .  . ....    . .  . ....    . .  .  ....    ....

E|------------------------------------------------------------------|
B|------------------------------------------------------------------|
G|------------------------------------------------------------------|
D|-------------------------------------------------7s4-4-4--2h4-4-4-|
A|----0000-0~-0-0--0-0000-0~-0-0--0-0000-0~-0-0--0-7s4-4-4--2h4-4-4-| 
D|----0000-0~-0-0--0-0000-0~-0-0--0-0000-0~-0-0--0-7s4-4-4--2h4-4-4-|
      ....    . .  . ....    . .  . ....    . .  .

Chorus!
E|------------------------------------------------------------------|
B|------------------------------------------------------------------|
G|------------------------------------------------------------------|
D|--7s4-4-4--2h4-4-4--7-7-7-7---0~--4-4-4-4--7----------------------|
A|--7s4-4-4--2h4-4-4--7-7-7-7---0~--2-2-2-2--5--7--7-7-7------------|
D|--7s4-4-4--2h4-4-4--7-7-7-7---0~--------------7--7-7-7------------| 


E|------------------------------------------------------------------|
B|------------------------------------------------------------------|
G|------------------------------------------------------------------|
D|-0~--5-5-5-5---4--2--2-2-2----0~--4-4-4-4--7----------------------|
A|-0~--5-5-5-5---2--0--0-0-0----0~--2-2-2-2--5--7--7-7-7------------|
D|-0~--5-5-5-5------------------0~--------------7--7-7-7------------| 


E|------------------------------------------------------------------|
B|------------------------------------------------------------------|
G|------------------------------------------------------------------|
D|-0~--5-5-5-5---4--2--2-2-2---0-0--0~--4s-7------------0~--5-5-5-5-|
A|-0~--5-5-5-5---2--0--0-0-0---0-0--0~--2s-5--7--7-7-7--0~--5-5-5-5-|
D|-0~--5-5-5-5-----------------0-0--0~--------7--7-7-7--0~--5-5-5-5-| 
                               . .


E|------------------------------------------------------------------|
B|------------------------------------------------------------------|
G|------------------------------------------------------------------|
D|--4--2--2-2-2---0~--4-4-4-4--7------------0~---5-5-5--4--2--2-2-2-|
A|--2--0--0-0-0---0~--2-2-2-2--5--7--7-7-7--0~---5-5-5--2--0--0-0-0-|
D|----------------0~--------------7--7-7-7--0~---5-5-5--------------|


Bridge/Outro!

E|------------------------------------------------------------------|
B|------------------------------------------------------------------|
G|------------------------------------------------------------------|
D|------------------------------------------------------------------| X6
A|----00000-0-0--00000--------00000-0-0--00000----------------------| 
D|----00000-0-0--00000--------00000-0-0--00000----------------------|     
      ..... . .  .....        ..... . .  .....


E|------------------------------------------------------------------|
B|------------------------------------------------------------------|
G|------------------------------------------------------------------|
D|--7s4-4-4--2h4-4-4------------------------------------------------| 
A|--7s4-4-4--2h4-4-4--00000-----------------------------------------|
D|--7s4-4-4--2h4-4-4--00000-----------------------------------------|       
                      .....  


Please feel free to leave comments! - C. Tysor
                     

Lyrics:

Could it be that I've mistaken you
For someone who can heal my pain
But you steal every breath of air that comes out of my lungs
But I can't keep, keep my hands off you

Give me a good reason to stay
If I can't decide
I'll dig my own grave
Give me a good reason to stay
If I don't decide
I'll dig my own... 

Could this be that I've mistaken you
For someone who can heal my pain
But you steal every breath of air that comes out of my lungs
But I can't keep, keep my hands off you (Hands off you)
Go! 

Give me a good reason to stay
If I can't decide
I'll dig my own grave
Give me a good reason to stay
If I don't decide
I'll dig my own grave

I need to learn from my mistakes! 
Or I'll dig my own grave
I need to learn from my mistakes! 
Or I'll dig my own grave
I need to learn from my mistakes! 
Or I'll dig my own grave
I need to learn from my mistakes! 
Or I'll dig my own grave


http://www.newfoundglory.com
Tap to rate this tab
 
# A B C D E F G H I J K L M N O P Q R S T U V W X Y Z