Song name
# A B C D E F G H I J K L M N O P Q R S T U V W X Y Z

New Found Glory - Intro tab

Help us improve GuitareTab! Take a short survey!
New Found Glory
Intro
Catalyst
Tabbed By: Mike, apguitar182@yahoo.com
Standard Tuning
*=PM repeatedly & gradualy open

open with a lot of feedback

Intro - Gt 1/Gt 2
e-Gt1/Gt2-|--Gt1-|--------|
B---------|------|--------|
G---66----|------|-6-6-6--|
D---66----|-6677-|-6-6-6--|
A---44----|-6677-|-4-4-4--|
E---------|-4455-|--------|
|       x3       |   x1   |

Verse
e---x3----|---x1----|---x3----|------------|
B---------|---------|---------|------------|
G-66------|---------|-66------|------------|
D-66-6677-|-444777--|-66-6677-|-444777-6*--|
A-44-6677-|-444777--|-44-6677-|-444777-6*--|
E----4455-|-222555--|----4455-|-222555-4*--|

Chorus
e---------------|x4
B---------------|
G---------22----|
D-2-66-44-22-2--|
A-2-66-44-00-2--|
E-0-44-22----0--|

Outro
e---------|-----------|
B---------|-----------|
G-66------|--------6--|
D-66-6677-|-444777-6--|
A-44-6677-|-444777-4--|
E----4455-|-222555----|
|   x3    |    x1     |
Related for Intro tab