Guitaretab - guitar tabs
Song name
# A B C D E F G H I J K L M N O P Q R S T U V W X Y Z

New Found Glory - Oxygen tab

-------------------------------------------------------------------------------
			     Oxygen - New Found Glory
-------------------------------------------------------------------------------
Tabbed by: bloodred16
Email: happytreefriends_firstblood@hotmail.com

Tuning: Standard (EADGBe)

This is another track off "Coming Home" which was put up for download on the bands
myspace account!

Thanks also to "dontlookdownkid" for correcting the second guitar part:D You were right 
it's appreciated:D


                                Guitar 1

Intro
  Rhy. Fig. 1                      End Rhy. Fig. 1 (x2)
e|---------------------------------------------------------------------------|
B|---------------------------------------------------------------------------|
G|---------------------------------------------------------------------------|
D|5--5-5--5-5--5--5/7-7-7--2--2-2--2-2--2--2/7-7-7---------------------------|
A|5--5-5--5-5--5--5/7-7-7--2--2-2--2-2--2--2/7-7-7---------------------------|
E|3--3-3--3-3--3--3/5-5-5--0--0-0--0-0--0--0-5-5-5---------------------------|

  Rhy. Fig. 2                                      End Rhy. Fig. 2 (x2)
e|---------------------------------------------------------------------------|
B|---------------------------------------------------------------------------|
G|---------------------------------------------------------------------------|
D|5-5-5-5-5-5-5-5-5-5-5-5-5-5-5-5--2-2-2-2-2-2-2-2-2-2-2-2-2-2-2-2-----------|
A|5-5-5-5-5-5-5-5-5-5-5-5-5-5-5-5--2-2-2-2-2-2-2-2-2-2-2-2-2-2-2-2-----------|
E|3-3-3-3-3-3-3-3-3-3-3-3-3-3-3-3--0-0-0-0-0-0-0-0-0-0-0-0-0-0-0-0-----------|

Verse
  Rhy. Fig. 3                      End Rhy. Fig. 3 (x3)
e|-----------------------------------------------------------------------------|
B|-----------------------------------------------------------------------------|
G|-----------------------------------------------------------------------------|
D|-----------------------------------------------------------------------------|
A|5--5-5--5-5--5--5-5-5-5--2--2-2--2-2--2--2-2-2-2-----------------------------|
E|3--3-3--3-3--3--3-3-3-3--0--0-0--0-0--0--0-0-0-0-----------------------------|
  PM---------------------------------------------------------------------------|


e|-----------------------------------------------------------------------------|
B|-----------------------------------------------------------------------------|
G|-----------------------------------------------------------------------------|
D|-----------------------------------------------7-----------------------------|
A|5--5-5--5-5--5--5-5-5-5--2--2-2--2-2--2--7-7-7-7-----------------------------|
E|3--3-3--3-3--3--3-3-3-3--0--0-0--0-0--0--5-5-5-5-----------------------------|
  PM---------------------------------------------------------------------------|

Chorus - Rhy. Fig. 2 (x4)
Verse
Chorus - Rhy. Fig. 2 (x4)

Bridge - Starts off just guitar 2 then...play Rhy. Fig. 3 but i'm not sure wether
         it's played palm-muted or open, so you decide!

Chorus - Rhy. Fig. 2 (x6)
Outro - Rhy. Fig. 1 (x2) (this might be palm-muted, again you decide)

End On
e|-----------------------------------------------------------------------------|
B|-----------------------------------------------------------------------------|
G|-----------------------------------------------------------------------------|
D|-----------------------------------------------------------------------------|
A|2--2-2--2-2------------------------------------------------------------------|
E|0--0-0--0-0------------------------------------------------------------------|
  PM---------------------------------------------------------------------------|

[ Tab from: http://www.guitaretab.com/n/new-found-glory/146794.html ]
                                Guitar 2

Intro
  Riff A                                                 End Riff A (x3)
e|---------------------------------------------------------------------------|
B|10--------10--10-10------------10--------10--10-10-------------------------|
G|---7-6/7------------7-6/7---------7-6/7------------7-6/7-------------------|
D|--------------------------9-9----------------------------9p7--7-7----------|
A|---------------------------------------------------------------------------|
E|---------------------------------------------------------------------------|

Verse

e|---------------------------------------------------------------------------|
B|---------------------------------------------------------------------------|
G|14--12-12--11-11--9--9-9-9-9--12--11-11--9--7-6-6-6-7p6--------------------|
D|-x---x--x---x--x--x--x-x-x-x---x---x--x--x--------------7-7----------------|
A|12--10-10---9--9--7--7-7-7-7--10---9--9--7---------------------------------|
E|---------------------------------------------------------------------------|

e|---------------------------------------------------------------------------|
B|---------------------------------------------------------------------------|
G|14--12-12--11-11--9--9-9-9-9--12--11-11--9--9------------------------------|
D|-x---x--x---x--x--x--x-x-x-x---x---x--x--x--x------------------------------|
A|12--10-10---9--9--7--7-7-7-7--10---9--9--7--7------------------------------|
E|---------------------------------------------------------------------------|

Chorus - Riff A (x2)
Verse
Chorus - Riff A (x2)

Bridge
e|---------------------------------------------------------------------------|
B|---------------------------------------------------------------------------|
G|14--12-12--11-11--9--9-9-9-9--12--11-11--9--7-6-6-6-7p6--------------------|
D|-x---x--x---x--x--x--x-x-x-x---x---x--x--x--------------7-7----------------|
A|12--10-10---9--9--7--7-7-7-7--10---9--9--7---------------------------------|
E|------------------------------------------------------------(x3)-----------|

e|-----------------------------------------------------------------------------|
B|--------------------------------------------------------------------------------|
G|14--12-12--11-11--9--9-9-9-9--12--11-11--9--9-----------------------------------|
D|-x---x--x---x--x--x--x-x-x-x---x---x--x--x--x-----------------------------------|
A|12--10-10---9--9--7--7-7-7-7--10---9--9--7--7-----------------------------------|
E|--------------------------------------------------------------------------------|

Chorus - Riff A (x2)
Outro

e|---------------------------------------------------------------------------|
B|---------------------------------------------------------------------------|
G|14--12-12--11-11--9--9-9-9-9--12--11-11--9--7-6-6-6-7p6--------------------|
D|-x---x--x---x--x--x--x-x-x-x---x---x--x--x--------------7-7----------------|
A|12--10-10---9--9--7--7-7-7-7--10---9--9--7---------------------------------|
E|---------------------------------------------------------------------------|

e|---------------------------------------------------------------------------|
B|---------------------------------------------------------------------------|
G|14--12-12--11-11--9--9-9-9-9-----------------------------------------------|
D|-x---x--x---x--x--x--x-x-x-x-----------------------------------------------|
A|12--10-10---9--9--7--7-7-7-7-----------------------------------------------|
E|---------------------------------------------------------------------------|


|PM-| Palm Mute
| /  slide up
| \  slide down
| x  Mute note
===============================================================================
Related for Oxygen tab