Guitaretab - guitar tabs
Song name
# A B C D E F G H I J K L M N O P Q R S T U V W X Y Z

New Found Glory - When I Die tab

-----------------------------------------------------------------------------
			   WHEN I DIE  New Found Glory
-----------------------------------------------------------------------------
Tabbed by: NFGcominghome
Tuning: Standard (EADGBe)

Intro: x4
e|--------------------------------------------------------------------------|
B|--------------------------------------------------------------------------|
G|--------------------------------------------------------------------------|
D|------------------0-2-0-------3~------------------------------------------|
A|----2/3---3/5---3-------3-2---3~------------------------------------------|
E|--1-----3-----5---------------1~------------------------------------------|

Verse 1: Guitar 1 x4
e|--------------------------------------------------------------------------|
B|--1-1-1-1--0-0-0-0--------------------------------------------------------|
G|--0-0-0-0--0-0-0-0--------------------------------------------------------|
D|--------------------------------------------------------------------------|
A|--------------------------------------------------------------------------|
E|--------------------------------------------------------------------------|

Verse 1: Guitar 2 x1
e|--------------------------------------------------------------------------|
B|--------------------------------------------------------------------------|
G|----------5~--------------------------------------------------------------|
D|--3~------5~------3~------------------------------------------------------|
A|--3~------3~------3~------------------------------------------------------|
E|--1~--------------1~------------------------------------------------------|

Repeat Intro x2

Verse 2: Guitar 1 x4
e|--------------------------------------------------------------------------|
B|--1-1-1-1--0-0-0-0--------------------------------------------------------|
G|--0-0-0-0--0-0-0-0--------------------------------------------------------|
D|--------------------------------------------------------------------------|
A|--------------------------------------------------------------------------|
E|--------------------------------------------------------------------------|

Verse 2: Guitar 2 x4
e|----------------------------------------------------------------------------|
B|----------------------------------------------------------------------------|
G|----------------------------------------------------------------------------|
D|--3-3-3-3-5-5-5-5-7-7-7-7-5-5-5-5-------------------------------------------|
A|--3-3-3-3-5-5-5-5-7-7-7-7-5-5-5-5-------------------------------------------|
E|--1-1-1-1-3-3-3-3-5-5-5-5-3-3-3-3-------------------------------------------|

Pre-chorus: Both Guitars x1
e|--------------------------------------------------------------------------|
B|--------------------------------------------------------------------------|
G|--------------------------------------------------------------------------|
D|------------------0-2-0---------------------7-7-7-5-5-5-------------------|
A|----2/3---3/5---3-------3-2----2/3--3/5----7-7-7-5-5-5-------------------|
E|--1-----3-----5--------------1-----3--------5-5-5-3-3-3-------------------|
				           pm x x x x x x
[ Tab from: http://www.guitaretab.com/n/new-found-glory/147389.html ]
Chorus: Both Guitars x2
e|--------------------------------------------------------------------------|
B|--------------------------------------------------------------------------|
G|--555-55-555-55-----------------------------------------------------------|
D|--555-55-555-55-333-33-333-33-55------------------------------------------|
A|--333-33-333-33-333-33-333-33-55------------------------------------------|
E|----------------111-11-111-11-33------------------------------------------|

Repeat Intro x2

Repeat Verse 1 Guitar 2 only x1

Repeat Pre-chorus x1

Repeat Chorus x2

Repeat Intro x2

Bridge Part 1: Both Guitars x4
e|----------------------------------------------------------------------------|
B|----------------------------------------------------------------------------|
G|--2222-4444-5555------------------------------------------------------------|
D|--2222-4444-5555-3333-------------------------------------------------------|
A|--0000-2222-3333-3333-------------------------------------------------------|
E|-----------------1111-------------------------------------------------------|
pm  xxxx xxxx xxxx xxxx

Bridge Part 2: Both Guitars
e|--------------------------------------------------------------------------|
B|--------------------------------------------------------------------------|
G|--2-2-2-2-2-2-4-4-4-4-4-4-5-5-5-5-5-5-------------------------------------|
D|--2-2-2-2-2-2-4-4-4-4-4-4-5-5-5-5-5-5-3-3-3-3-3-3-3-3-3-3-3-3-3-3-3-3-3-3-|
A|--0-0-0-0-0-0-2-2-2-2-2-2-3-3-3-3-3-3-3-3-3-3-3-3-3-3-3-3-3-3-3-3-3-3-3-3-|
E|--------------------------------------1-1-1-1-1-1-1-1-1-1-1-1-1-1-1-1-1-1-|

Bridge Part 2: Both Guitars
e|--------------------------------------------------------------------------|
B|--------------------------------------------------------------------------|
G|--------------------------------------------------------------------------|
D|--5-5-5-5-5-5-5-5-5-5-5-5-------------------------------------------------|
A|--5-5-5-5-5-5-5-5-5-5-5-5-------------------------------------------------|
E|--3-3-3-3-3-3-3-3-3-3-3-3-------------------------------------------------|

Repeat Chorus x2

Repeat Intro x1

Repeat Chorus x2

Last Chorus Solo: Guitar 1 x1
e|------3p1p0-----3p1p0-----3-3h5-0-0-----3-3h5---------3p1p0-----3p1-------|
B|--0h1-------0h1-------0h1-----------0h1-------3-1-0h1-------0h1-----3-3---|
G|--------------------------------------------------------------------------|
D|--------------------------------------------------------------------------|
A|--------------------------------------------------------------------------|
E|--------------------------------------------------------------------------|

Repeat Intro x1

Outro: Both Guitars x2
e|--------------------------------------------------------------------------|
B|--------------------------------------------------------------------------|
G|-----------------------------------------------5~-------------------------|
D|--3-3-3-3-5-5-5-5-7-7-7-7-9-9-9-9--------------5~-------------------------|
A|--3-3-3-3-5-5-5-5-7-7-7-7-9-9-9-9----end on----3~-------------------------|
E|--1-1-1-1-3-3-3-3-5-5-5-5-7-7-7-7-----------------------------------------|
pm  x x x x x x x x x x x x x x x x

| /  slide up
| \  slide down
| h  hammer-on
| p  pull-off
| ~  vibrato
| +  harmonic
| x  Mute note
=============================================================================
Related for When I Die tab