Song name
# A B C D E F G H I J K L M N O P Q R S T U V W X Y Z

New Found Glory - Still The One tab

Help us improve GuitareTab! Take a short survey!
Song: Still the one
Artist: New Found Glory
Tunning: Standard
Tabbed by: Nikko Gonzales
mabuhay mga pilipino
Guitar I:Lead
Guitar II:Rhythm

0-open string/strum
/-slide

Intro

Guitar I
e|-------------------------------------|
b|-------------------------------------|
g|--------7h9p7----------7h9p7---------|
d|---5------------5--------------------|
a|-------------------------------------|
E|-------------------------------------|

or

e|-------------------------------------|
b|-------------------------------------|
g|--------7h9p7----------7h9p7---------|
d|-------------------------------------|
a|----10-----------10------------------|
E|-------------------------------------|

or

e|-------------------------------------|
b|-------------------------------------|
g|---0-----7h9p7------0----7h9p7-------|
d|-------------------------------------|
a|-------------------------------------|
E|-------------------------------------|
it depends where you are most comfortable to use, it all sound the same
Guitar II verse
e|-------------------------------------|
b|-------------------------------------|
g|---7xxx------------------------------|do it as neeeded then 
d|---7xxx--0--4xx-0--5xxx--0--7xxx-----|do it with guitar 1 
a|---5xxx--0--4xx-0--5xxx--0--7xxx-----|
E|---------0--2xx-0--3xxx--0--5xxx-----|

Pre-Chorus
both guitars
e|-------------------------------------|
b|-------------------------------------|
g|-777-----------777-------------------|
d|-777-555-777---777-555-7~------------|
a|-555-555-777---555-555-7~------------|
E|-----333-555-------333-5~------------|

Chorus
e|-------------------------------------|
b|-------------------------------------|
g|-777------999------777---------------|
d|-777-555--999-777--777-555-777-------|
a|-555-555--777-777--555-555-777-------|
E|-----333------555------333-555-------|

solo,i don't have a guitar right now so it is confusing to tab it mentally maybe next time.
Related for Still The One tab