Song name
# A B C D E F G H I J K L M N O P Q R S T U V W X Y Z

New Found Glory - It Aint Me Babe tab

By-Francis
SHC-Lucena City,Philippines
Cp #- 09287150674 
E-add- f_sario@yahoo.com  
http://profiles.friendster.com/37158911

New found glory-It Aint Me Babe

GtrI  ( e b g d A E )- dist

GtrII ( e b g d A E )- dist

Intro-

GtrI
|-----------------------------------------------------------------------|
|-----------------------------------------------------------------------|
|--7-7-7---------7-7-7--------------------------------------------------|
|--7-7-7--7-7-7--7-7-7--7-7-7----7-7-7-7-7--22--7-7-777-----------------|
|--5-5-5--7-7-7--5-5-5--7-7-7----7-7-7-7-7--22--7-7-777-----------------|
|---------5-5-5---------5-5-5----5-5-5-5-5--00--5-5-555-----------------|

|----------5----------------5-----|------------------------------------|
|-5-/7-7-7---5-5---5-/7-7-7---5-5-|------------------------------------|
|---------------------------------|-2-22-222-4h5p4-22-222--------------|
|---------------------------------|------------------------------------|
|---------------------------------|------------------------------------|
|---------------------------------|------------------------------------|

Verse-
GtrI& II
|-----------------------------------------------------------------------|
|-----------------------------------------------------------------------|
|-----------------------------------------------------------------------|
|-7-7-7-7-7-7-7--9-9-9-9-9-9-9-9--7-7-7-7--2-2-2-2--7-7-7-7-7-7---------|
|-7-7-7-7-7-7-7--9-9-9-9-9-9-9-9--7-7-7-7--2-2-2-2--7-7-7-7-7-7---------|
|-5-5-5-5-5-5-5--7-7-7-7-7-7-7-7--5-5-5-5--0-0-0-0--5-5-5-5-5-5---------|


Refrain
GtrI& II
|-----------------------------------------------------------------------|
|-----------------------------------------------------------------------|
|-----------------------------------------------------------------------|
|-77-777-777-777--99-999-999-999--77-777-777-777--99-999-999-999--------|2x
|-77-777-777-777--99-999-999-999--77-777-777-777--99-999-999-999--------|
|-55-555-555-555--77-777-777-777--55-555-555-555--77-777-777-777--------|
  ** *** *** ***  ** *** *** ***  ** *** *** ***  ** *** *** ***


Pre-
GtrI& II
|-----------------------------------------------------------------------|
|-----------------------------------------------------------------------|
|-777777777--9999999999-------------------------------------------------|
|-777777777--9999999999-------------------------------------------------|
|-555555555--7777777777-------------------------------------------------|
|-----------------------------------------------------------------------|

Chorus-
GtrI& II
|-----------------------------------------------------------------------|
|-----------------------------------------------------------------------|
|----------7777-9999----------7777-9999---------------------------------|
|-77777777-7777-9999-77777777-7777-9999--77777777-----------------------|
|-77777777-5555-7777-77777777-5555-7777--77777777-----------------------|
|-55555555-----------55555555------------55555555-----------------------|


Repeat Intro,Verse
GtrI
|--------------------------|   -------------------------------|
|--------------------------|   -------------------------------|
|---------4---4------------|   ----------4---4----------------|
|-7-2-7-2-4-4-4--2--4--6---|3x --7-2-7-2-4-4-4----------------|
|-7-2-7-2-2-4-2--2--4--6---|   --7-2-7-2-2-4-2----------------|
|-5-0-5-0---2----0--2--4---|   --5-0-5-0---2------------------|

GtrII
|-55xx555555-77xx77xx777xx-|   --121214141212141412121414-----|
|-xx5555xx55-xx77xx77xx777-|   -------------------------------|
|--------------------------|3x   -----------------------------|
|--------------------------|   -------------------------------|
|--------------------------|   -------------------------------|
|--------------------------|   -------------------------------|

Repeat Pre,Chorus
GtrI
|----------------------------|  ---------------------|
|----------------------------|  ---------------------|
|-2-2-2-2-2-2-2-4-4-4-4-4-4-4|  -4-------------------|
|-2-------------4------------|3x-4-------------------|
|-0-------------2------------|  -2-------------------|
|----------------------------|  ---------------------|


GtrI& II
|-----------------------------------------------------------------------|
|-----------------------------------------------------------------------|
|-777777777--9999999999-------------------------------------------------|
|-777777777--9999999999-------------------------------------------------|
|-555555555--7777777777-------------------------------------------------|
|-----------------------------------------------------------------------|

Repeat Chorus
GtrI
|-----------------------------------------------------------------------|
|-----------------------------------------------------------------------|
|--7-7-7---------7-7-7--------------------------------------------------|
|--7-7-7--7-7-7--7-7-7--7-7-7----7-7-7-7-7--22--7-7-777-----------------|
|--5-5-5--7-7-7--5-5-5--7-7-7----7-7-7-7-7--22--7-7-777-----------------|
|---------5-5-5---------5-5-5----5-5-5-5-5--00--5-5-555-----------------|
GtrI& II
|----------5----------------5-----|------------------------------------|
|-5-/7-7-7---5-5---5-/7-7-7---5-5-|------------------------------------|
|---------------------------------|-2-22-222-4h5p4-22-222--------------|
|---------------------------------|------------------------------------|
|---------------------------------|------------------------------------|
|---------------------------------|------------------------------------|

Outro-
|-------------------------| ----------------------------------------------|
|-------------------------| ----------------------------------------------|
|-------------------------| ----------------------------------------------|
|-7-7-7-7-7--22--7-7-777--|2x 7-7-7-7-7--22--7----7-----------------------|
|-7-7-7-7-7--22--7-7-777--| --7-7-7-7-7--22--7----7-----------------------|
|-5-5-5-5-5--00--5-5-555--| --5-5-5-5-5--00--5----5-----------------------|

|-------------------------| ----------------------------------------------|
|-------------------------| ----------------------10----------------------|
|-2-22-222-4h5p4-22-222---| --2-22-222-4h5p4-2----------------------------|
|-------------------------|2x --------------------------------------------|
|-------------------------| ----------------------------------------------|
|-------------------------| ----------------------------------------------|

End
Tap to rate this tab
# A B C D E F G H I J K L M N O P Q R S T U V W X Y Z