Song name
# A B C D E F G H I J K L M N O P Q R S T U V W X Y Z

New Found Glory - The King Of Wishful Thinking tab

By-Francis
SHC-Lucena City,Philippines
Cp #- 09287150674 
E-add- f_sario@yahoo.com  
http://profiles.friendster.com/37158911

note-
Tuning Drop D

'King of wishful thinking'

Intro-
1.
GtrI
|------------------------------------------------------------------|
|------------------------------------------------------------------|
|-9-9-9-99-5-5-5-5/7-7-7-77--5-55--9-9-9-99-5-5-5-5/7-7-7-77--5-55-|
|-x-x-x-xx-x-x-x-x-x-x-x-xx--x-xx--x-x-x-xx-x-x-x-x-x-x-x-xx--x-xx-|
|-7-7-7-77-3-3-3-3/5-5-5-55--3-33--7-7-7-77-3-3-3-3/5-5-5-55--3-33-|
|------------------------------------------------------------------|
2.

GtrI
|------------------------------------------------------------------|
|------------------------------------------------------------------|
|-9-9-9-99-5-5-5-5/7-7-7-77--5-55--9-9-9-99-5-5-5-5/7-7-7-77--5-55-|
|-x-x-x-xx-x-x-x-x-x-x-x-xx--x-xx--x-x-x-xx-x-x-x-x-x-x-x-xx--x-xx-|
|-7-7-7-77-3-3-3-3/5-5-5-55--3-33--7-7-7-77-3-3-3-3/5-5-5-55--3-33-|
|------------------------------------------------------------------|

GtrII
|------------------------------------------------------------------|
|------------------------------------------------------------------|
|-------------------x5~-55------------------------x5~---55---------|
|-7---2-3--3-5-x5---x5~-55------7---2-3--3-5-x5---x5~---55---------|
|-7---2-3--3-5-x5---x3~-33------7---2-3--3-5-x5---x3~---33---------|
|-7---2-3--3-5-x5---------------7---2-3--3-5-x5--------------------|

Verse-

GtrI& II
|------------------------------------------------------------------|
|------------------------------------------------------------------|
|-------------------x5~-55------------------------x5~---55---------|
|-7---2-3--3-5-x5---x5~-55------7---2-3--3-5-x5---x5~---55---------|
|-7---2-3--3-5-x5---x3~-33------7---2-3--3-5-x5---x3~---33---------|
|-7---2-3--3-5-x5---------------7---2-3--3-5-x5--------------------|

Refrain-

GtrI
|------------------------------------------------------------------|
|------------------------------------------------------------------|
|-77777777-1010101010101010--77777777-10-10--12--------------------|
|-xxxxxxxx-x-x-x-x-x-x-x-x---xxxxxxxx-x--x---x---------------------|
|-55555555-8-8-8-8-8-8-8-8---55555555-8--8---10--------------------|
|------------------------------------------------------------------|

GtrII
|------------------------------------------------------------------|
|------------------------------------------------------------------|
|--77777777------------77777777------------------------------------|
|--77777777-333333333--77777777--3-3--5~---------------------------|
|--55555555-333333333--55555555--3-3--5~---------------------------|
|-----------333333333------------3-3--5~---------------------------|

Chorus-
GtrI
|------------------------------------------------------------------|
|------------------------------------------------------------------|
|-5-5-----------------5-5-----------------5-5----------------------|
|-5-5--33--5-5--7-77--5-5--33--5-5--7-77--5-5--33--5-5--7-77-------|
|-3-3--33--5-5--7-77--3-3--33--5-5--7-77--3-3--33--5-5--7-77-------|
|------33--5-5--7-77-------33--5-5--7-77-------33--5-5--7-77-------|

GtrII
|----------------------------------|
|----------------------------------|
|-12-1212-12/14--16-1616-17~-------|
|-x--x-x--x--x---x--x-x--x---------|3x
|-10-1010-10/12--14-1414-15~-------|
|----------------------------------|


|------------------------------------------------------------------|
|------------------------------------------------------------------|
|------------------------------------------------------------------|
|-3-3-3-3-3-3-3-3-3-3-3-3-3-3-3------------------------------------|
|-3-3-3-3-3-3-3-3-3-3-3-3-3-3-3------------------------------------|
|-3-3-3-3-3-3-3-3-3-3-3-3-3-3-3------------------------------------|
  * * * * * * * * * * * *   

Continued..
GtrI
|------------------------------------------------------------------|
|------------------------------------------------------------------|
|-9-9-9-99-5-5-5-5/7-7-7-77--5-55--9-9-9-99-5-5-5-5/7-7-7-77--5-55-|
|-x-x-x-xx-x-x-x-x-x-x-x-xx--x-xx--x-x-x-xx-x-x-x-x-x-x-x-xx--x-xx-|
|-7-7-7-77-3-3-3-3/5-5-5-55--3-33--7-7-7-77-3-3-3-3/5-5-5-55--3-33-|
|------------------------------------------------------------------|

GtrII
|------------------------------------------------------------------|
|------------------------------------------------------------------|
|-------------------x5~-55------------------------x5~---55---------|
|-7---2-3--3-5-x5---x5~-55------7---2-3--3-5-x5---x5~---55---------|
|-7---2-3--3-5-x5---x3~-33------7---2-3--3-5-x5---x3~---33---------|
|-7---2-3--3-5-x5---------------7---2-3--3-5-x5--------------------|

verse2-


Verse-
1.
GtrI& II
|------------------------------------------------------------------|
|------------------------------------------------------------------|
|-------------------x5~-55------------------------x5~---55---------|
|-7---2-3--3-5-x5---x5~-55------7---2-3--3-5-x5---x5~---55---------|
|-7---2-3--3-5-x5---x3~-33------7---2-3--3-5-x5---x3~---33---------|
|-7---2-3--3-5-x5---------------7---2-3--3-5-x5--------------------|

2.
GtrI
|------------------------------------------------------------------|
|------------------------------------------------------------------|
|-9-9-9-99-5-5-5-5/7-7-7-77--5-55--9-9-9-99-5-5-5-5/7-7-7-77--5-55-|
|-x-x-x-xx-x-x-x-x-x-x-x-xx--x-xx--x-x-x-xx-x-x-x-x-x-x-x-xx--x-xx-|
|-7-7-7-77-3-3-3-3/5-5-5-55--3-33--7-7-7-77-3-3-3-3/5-5-5-55--3-33-|
|------------------------------------------------------------------|

GtrII
|------------------------------------------------------------------|
|------------------------------------------------------------------|
|-------------------x5~-55------------------------x5~---55---------|
|-7---2-3--3-5-x5---x5~-55------7---2-3--3-5-x5---x5~---55---------|
|-7---2-3--3-5-x5---x3~-33------7---2-3--3-5-x5---x3~---33---------|
|-7---2-3--3-5-x5---------------7---2-3--3-5-x5--------------------|

REpeat Refrain chorus...
Interlude-
GtrI
|------------------------------------------------------------------|
|------------------------------------------------------------------|
|------------------------------------------------------------------|
|---------2------------------2-------------------------------------|
|-----3h5----------------3h5-------------------3h5--33-------------|
|-7h9--------7--7--5--7h9--------7--7--5---7h9---------------------|

GtrII
|------------------------------------------------------------------|
|------------------------------------------------------------------|
|------------------------------------------------------------------|
|------------7--7--5-------------7--7--5---------------------------|
|------------7--7--5-------------7--7--5---------------------------|
|------------7--7--5-------------7--7--5---------------------------|

Repeat refrain

Bridge Chorus-
rhythm(-C F G  Am 3x )

then

|------------------------------------------------------------------|
|------------------------------------------------------------------|
|------------------------------------------------------------------|
|-3-3-3-3-3-3-3-3-0-0-0-0-0-0-0-0-3-3-3-3-3-3-3-3-0-0-0-0-0-0-0-0--|
|-3-3-3-3-3-3-3-3-0-0-0-0-0-0-0-0-3-3-3-3-3-3-3-3-0-0-0-0-0-0-0-0--|
|-3-3-3-3-3-3-3-3-0-0-0-0-0-0-0-0-3-3-3-3-3-3-3-3-0-0-0-0-0-0-0-0--|
  * * * * * * * * * * * * * * * * * * * * * * * * * * * * * * * * 

Do chorus till fade-
Tap to rate this tab
 
# A B C D E F G H I J K L M N O P Q R S T U V W X Y Z