Song name
# A B C D E F G H I J K L M N O P Q R S T U V W X Y Z

New Found Glory - Head Over Heels tab

By-Francis
SHC-Lucena City,Philippines
Cp #- 09287150674 
E-add- f_sario@yahoo.com  
http://profiles.friendster.com/37158911

Tuning- GtrI & Gtr II ( e b g d A E }

Intro-

1.
|------------------------------------------------------|
|------------------------------------------------------|
|-3~----------------------5~---------------------------|
|-3~----------------------5~---------------------------|2x
|-1~----------------------3~---------------------------|
|------------------------------------------------------|



1.
GtrI
|------------------------------------------------------|
|------------------------------------------------------|
|-3~----------------------5~---------------------------|
|-3~----------------------5~---------------------------|2x
|-1~----------------------3~---------------------------|
|------------------------------------------------------|

GtrII 
|----------------------13/15~-13---------------------------------------|
|--------------------------------/11~-10-----------------11-10---------|
|-----------10/12~-10---------------------10-10/12~-----------10-12----|
|-10/12~-10-----------------------------------------12~-------------12-|
|----------------------------------------------------------------------|
|----------------------------------------------------------------------|

---------------------13/15~-13----------|
----------------------------------------|
----------10/12~-10---------------------|
-10/12~-10------------------------------|
----------------------------------------|
----------------------------------------|

Verse-
1.
GtrI
|------------------------------------------------------|
|------------------------------------------------------|
|------------------------------------------------------|
|------------------------------------------------------|2x
|-55555555--33333333--55555555-33333333----------------|
|-33333333--11111111--33333333-11111111----------------|

2.
GtrI
|------------------------------------------------------|
|------------------------------------------------------|
|------------------------------------------------------|
|------------------------------------------------------|2x
|-55555555--33333333--55555555-33333333----------------|
|-33333333--11111111--33333333-11111111----------------|

GtrII
|------------------------------------------------------|
|------------------------------------------------------|
|-77777777--55555555--77777777-55555555----------------|
|-xxxxxxxx--xxxxxxxx--xxxxxxxx-xxxxxxxx----------------|2x
|-55555555--33333333--55555555-33333333----------------|
|------------------------------------------------------|


Chorus-
|------------------------------------------------------|
|------------------------------------------------------|
|------------------------------------------------------|
|---------7777777----------7777777---------7777777-8~--|
|-3333333-5555555--3333333-5555555-3333333-5555555-6~--|
|-1111111----------1111111---------1111111-------------|


|------------------------------------------------------|
|------------------------------------------------------|
|-5555555-7777777--5555555-7777777-5555555-7777777-8~--|
|-xxxxxxx-xxxxxxx--xxxxxxx-xxxxxxx-xxxxxxx-xxxxxxx-x---|
|-3333333-5555555--3333333-5555555-3333333-5555555-6~--|
|------------------------------------------------------|


Interlude-


|------------------------------------------------------------------|
|------------11-10-----11-10-------------------------------11-10---|
|-12-10--------------------------10*10*-12-----10-12-10-12---------|
|-------12*--------12*-------12*-----------12*---------------------|
|------------------------------------------------------------------|
|------------------------------------------------------------------|

|------------------------------------------------------|
|--------11-10-----------------------------------------|
|-----12--------10-12-10-------------------------------|
|-12*--------------------12~---10-12/------------------|
|------------------------10~---------------------------|
|------------------------------------------------------|

Do verse-Chorus-
Interlude-
effects-

Repeat till fade


GtrI
|------------------------------------------------------|
|------------------------------------------------------|
|------------------------------------------------------|
|-333333333333333-55555555555555555--------------------|
|-111111111111111-33333333333333333--------------------|
|------------------------------------------------------|




GtrII 
|----------------------13/15~-13---------------------------------------|
|--------------------------------/11~-10-----------------11-10---------|
|-----------10/12~-10---------------------10-10/12~-----------10-12----|
|-10/12~-10-----------------------------------------12~-------------12-|
|----------------------------------------------------------------------|
|----------------------------------------------------------------------|
Tap to rate this tab
# A B C D E F G H I J K L M N O P Q R S T U V W X Y Z