Song name
# A B C D E F G H I J K L M N O P Q R S T U V W X Y Z

New Found Glory - Listen To Your Friends tab

New Found Glory - Listen Yo Your Friends

Awesome song, no tabs yet so thought id tab this badboy. pretty basic, standard tuning..


Intro:

-------------|
-------------|
-66----66----|
-xx-77-xx-99-|
-44-xx-44-xx-|
----55----77-|

----------------------------------|
----------------------------------|
-99999999-8-999-8-999-66----66----|
-99999999-8-999-8-999-66-77-66-99-|
-77777777-6-777-6-777-44-77-44-99-|
-------------------------55----77-|

----------------------------------|
----------------------------------|
-99999999-8-999-11-66----66-----9-|
-99999999-8-999-11-66-77-66-99--9-|
-77777777-6-777-9--44-77-44-99--7-|
----------------------55----77----|

(Acoustic Part)
-------------------------------------------------|
-------------------------------------------------|
-13-13-13-13-13-13-13-13-13-13-13-13-13-13-13-13-|
-------------------------------------------------|
-11-11-11-11-------------------------------------|
-------------12-12-12-12-14-14-14-14-12-12-12-12-|


Verse: (Palm Muted, the 1's are 11's.)

------------------------------------------------------------------|
------------------------------------------------------------------|
-9999999999999999999999999999999----------------------------------|
-999999999999999999999999999999977777777777777777777777777777777--|
-777777777777777777777777777777777777777777777777777777777777777--|
--------------------------------55555555555555555555555555555555--|

------------------------------------------------------------------|
------------------------------------------------------------------|
-9999999999999999999999999999999----------------------------------|
-9999999999999999999999999999999111111111111111111111111111111111-|
-7777777777777777777777777777777111111111111111111111111111111111-|
--------------------------------99999999999999999999999999999999--|

---------------------------------|
---------------------------------|
---------------------------------|
-77777777777777777777777777777777|
-77777777777777777777777777777777|
-55555555555555555555555555555555|


Pre Chorus

-------------------------------------------------------------|
-------------------------------------------------------------|
-66-------------66-------------66-------------66-------------|
-66-77-99-22222-66-77-99-22222-66-77-99-22222-66-77-99999999-|
-44-77-99-22222-44-77-99-22222-44-77-99-22222-44-77-99999999-|
----55-77-00000----55-77-00000----55-77-00000----55-77777777-|


Chorus

------------------------------|
------------------------------|
-9999999999999999-66----66----|
-9999999999999999-66-77-66-99-|       X 2
-7777777777777777-44-77-44-99-|
---------------------55----77-|


Verse: (Palm Muted, the 1's are 11's.)

-----------------------------------------------------------------|
-----------------------------------------------------------------|
-9999999999999999999999999999999---------------------------------|
-999999999999999999999999999999911111111111111111111111111111111-
-777777777777777777777777777777711111111111111111111111111111111-
--------------------------------99999999999999999999999999999999-

-----------------------------------------------------------------|
-----------------------------------------------------------------|
--------------------------------99999999999999999999999999999999-|
-777777777777777777777777777777799999999999999999999999999999999-
-777777777777777777777777777777777777777777777777777777777777777-
-5555555555555555555555555555555---------------------------------


Pre Chorus

---------------------------------------------------------------------|
---------------------------------------------------------------------|
-66-------------66-------------66-------------66---------------------|
-66-77-99-22222-66-77-99-22222-66-77-99-22222-66-77-9999999999999999-|
-44-77-99-22222-44-77-99-22222-44-77-99-22222-44-77-9999999999999999-|
----55-77-00000----55-77-00000----55-77-00000----55-7777777777777777-|


Chorus

------------------------------|
------------------------------|
-9999999999999999-66----66----|
-9999999999999999-66-77-66-99-|       X 4
-7777777777777777-44-77-44-99-|
---------------------55----77-|


Solo (figure out bends and slides)

--------------------------------------------------|
--------------------------57----------------------|
----------------------------6---------------------|
-67-776-66--------67-776-6----677776666-----------|
----------9-997-7----------------------999977779--|
------------------------------------------------9-|


Before Final Chorus (Palm Muted)

----------------------------------|
----------------------------------|
----------------------------------|
-99999999999999999999999955555555-|
-99999999999999999999999955555555-|
-77777777777777777777777733333333-|


Final Chorus (Mix in palm mutes on third and fourth time)

------------------------------|
------------------------------|
-9999999999999999-66----66----|
-9999999999999999-66-77-66-99-|       X 4
-7777777777777777-44-77-44-99-|
---------------------55----77-|

-------------|
-------------|
-66----66----|
-66-77-66-99-|    X 2
-44-77-44-99-|
----55----77-|


fairly simple... hope it was all correct.. tabbed by tom parker
Tap to rate this tab
# A B C D E F G H I J K L M N O P Q R S T U V W X Y Z