Song name
# A B C D E F G H I J K L M N O P Q R S T U V W X Y Z

New Found Glory - Im The Fool tab

Help us improve GuitareTab! Take a short survey!
New Found Glory
I'm The Fool
Not Without A Fight

Intro/Verse

Guitar One:

|--------------------|
|--------------------|
|---77xxxx10 10xxx---|
|---77xxxx10 10xxx88-|    Listen to song for number of times
|---55xxxx8  8 xxx88-|
|-----------------66-|

Guitar Two:

|---6h5---8~--6h5-5~-|
|------8h6-------8---|
|--------------------|
|--------------------| X2  Listen to song for times to play
|--------------------|
|--------------------|

Chorus

Guitar One:

|----------------------------------------------------------|
|----------------------------------------------------------|
|---10-----------------------------------------------------|
|---10 X16888888888888888833333333333333338888888888888888-|
|---8-----888888888888888833333333333333338888888888888888-|
|---------666666666666666611111111111111116666666666666666-|

|--------------------------------------------------------------------|
|--------------------------------------------------------------------|
|--------------------------------------------------------------------|
|---3333333333333333888888888888888833333333333333338888888888888888-|
|---3333333333333333888888888888888833333333333333338888888888888888-|
|---1111111111111111666666666666666611111111111111116666666666666666-|

|-----------------------------------------------------------|
|-----------------------------------------------------------|
|---10------------------------------------------------------|
|---10 X16 888888888888888833333333333333338888888888888888-|
|---8----- 888888888888888833333333333333338888888888888888-|
|--------- 666666666666666611111111111111116666666666666666-|

|--------------------------------------------------------------------|
|--------------------------------------------------------------------|
|--------------------------------------------------------------------|
|---33333333333333338888888888888888333333333333333388888888 11------|
|---33333333333333338888888888888888333333333333333388888888 11------| X8
|---11111111111111116666666666666666111111111111111166666666 9-------|

Guitar Two:

|-------88----88--55----88----88--55----88----88~5h6p5--|
|---5566--5566--66--5566--5566--66--5566--5566--------6-|
|-------------------------------------------------------|
|-------------------------------------------------------|
|-------------------------------------------------------|
|-------------------------------------------------------|

  :Verse:

  :Chorus:

Guitar One:

|-------------|
|-------------|
|-------------|
|---7~-8~-10--|  X A bunch of times, Listen for changes in strumming
|---7~-8~-10~-|
|---5~-6~-8~--|

Guitar Two


|-------|
|---6~--|
|-------|
|-------|
|-------|

   :Chorus:

   :Verse:
|
Related for Im The Fool tab