Guitaretab - guitar tabs
Song name
# A B C D E F G H I J K L M N O P Q R S T U V W X Y Z

New Found Glory - Ill Never Love Again tab

----------------------------------------------------------------------------
                  Iíll Never Love Again- New Found Glory
----------------------------------------------------------------------------
Tabbed by: GuitarMan479
Email: amp.566@hotmail.com

Tuning: Drop D

Ok this tab is obviously not perfect and maybe not the way NFG plays it, but it sounded 
enough to me. I am still trying to work on getting the chorus for Gtr 1 but other than 
everything else is there. Hope you like it!

(Intro) Gtr 1
e|--------------------------------------|-----------------|
B|--------------------------------------|-----------------|
G|-4h5h6h7-(x20 over and over again)----|------77777779p7-|
D|--------------------------------------|-----------------|
A|--------------------------------------|-----------------|
D|--------------------------------------|-----------------|

(Intro) Gtr 2 (Comes in on the 8th play of (4h5h6h7))
e|--------------------------------------|-------------------|
B|--------------------------------------|-------------------|
G|--------------------------------------|-------------------|
D|-0---777-4444-0---777-4444-0-777-4444-|-0000-00-0-0-0-0---|
A|-0---777-4444-0---777-4444-0-777-4444-|-0000-00-0-0-0-0---|
D|-0---777-4444-0---777-4444-0-777-4444-|-0000-00-0-0-0-0---|
                                          ....    .   .

(Verse) Gtr 1 (Comes in after Gtr 2 plays 1st time)
e|-------------------------------------------------------------------------|
B|-------------------------------------------------------------------------|
G|-4h5h6h7-(x20)-----------------------------------------------------------|
D|-------------------------------------------------------------------------|
A|-------------------------------------------------------------------------|
D|-------------------------------------------------------------------------|

(Verse) Gtr 2
e|------------------------------------------------------|
B|------------------------------------------------------|
G|------------------------------------------------------|(x2)
D|-0---777-4444-0---777-4444-0-777-4444-0000-00-0-0-0-0-|
A|-0---777-4444-0---777-4444-0-777-4444-0000-00-0-0-0-0-|
D|-0---777-4444-0---777-4444-0-777-4444-0000-00-0-0-0-0-|
                                        ....    .   .
[ Tab from: http://www.guitaretab.com/n/new-found-glory/181587.html ]
(Chorus) Gtr 1
e|-------------------------------------------------------------------------|
B|-------------------------------------------------------------------------|
G|-------------------------------------------------------------------------|
D|-------------------------------------------------------------------------|
A|-------------------------------------------------------------------------|
D|-------------------------------------------------------------------------|


(Chorus) Gtr 2
e|-------------------------------------------------------------------------|
B|-------------------------------------------------------------------------|
G|-------------------------------------------------------------------------|
D|-0-2-0000000--------0-2-0000000-------0-2-0000000------------------------|
A|-0-2-0000000--------0-2-0000000-------0-2-0000000------------------------|
D|-0-2-0000000--------0-2-0000000-------0-2-0000000------------------------|
       .......            .......           .......

(Verse 2) Gtr1

(Verse 2) Gtr2

The 2nd verse is basically the same as the 1st verse, only slightly different, which you 
probably figure out.

(Chorus) Gtr 1 (x2)

(Chorus) Gtr 2 (x2)

Repeat the chorus.

(Bridge)
e|-------------------------------------------------------------------------|
B|-------------------------------------------------------------------------|
G|-------------------------------------------------------------------------|
D|-0000--0000ó0000-2/3-44-33--0000--0000--0000ó-2/3-44-33--0000--0000-0000-|
A|-0000--0000ó0000-2/3-44-33--0000--0000--0000--2/3-44-33--0000--0000-0000-|
D|-0000--0000ó0000-2/3-44-33--0000--0000--0000--2/3-44-33--0000--0000-0000-|
   ....  .... ....            ....  ....  ....             ....  .... ....
e|-------------------------------------------------------------------------|
B|-------------------------------------------------------------------------|
G|-------------------------------------------------------------------------|
D|-2/3-44-33--0000--0000--0000-3-/-5-/-7--0-2-0000-7p5-7--0-2--0-7777------|
A|-2/3-44-33--0000--0000--0000-3-/-5-/-7--0-2-0000--------0-2--0-7777------|
D|-2/3-44-33--0000--0000--0000-3-/-5-/-7--0-2-0000--------0-2--0-7777------|
              ....  ....  ....                ....             .

Then play the chorus 1 more time!

For the outro just play the intro again.

Thatís it!

| /  slide up
| \  slide down
| h  hammer-on
| p  pull-off
| ~  vibrato
| +  harmonic
| x  Mute note
| .  Palm mute
============================================================================
Related for Ill Never Love Again tab