Song name
# A B C D E F G H I J K L M N O P Q R S T U V W X Y Z

New Found Glory - Dont Let Her Pull You Down tab

---------------------------------------------------------------------------
		DON'T LET HER PULL YOU DOWN - New Found Glory
---------------------------------------------------------------------------
Tabbed by:guitarmaster41
Email:guitarmaster41@yahoo.com

Tuning:standard

Intro:
lead
e|-----------4p0----------------------------|
B|-5p0-0h7p0--------------------------------|
G|------------------------------------------|
D|------------------------------------------|
A|------------------------------------------|
E|------------------------------------------| x4
rhythm
e|------------------------------------------|
B|------------------------------------------|
G|------------------------------------------|
D|------------------------------------------|
A|-2--2-2----2--2-2----2--2-2----2--2-2-2-2-|
E|-0--0-0----0--0-0----0--0-0----0--0-0-0-0-|
   .  . .    .  . .    .  . .

lead
e|-----------4p0----------------------------|
B|-5p0-0h7p0--------------------------------|
G|------------------------------------------|
D|------------------------------------------|
A|------------------------------------------|
E|------------------------------------------| x4
rhythm
e|------------------------------------------|
B|------------------------------------------|
G|------------------------------------------|
D|-2--2-2----2--2-2----2--2-2----2--2-2-2-2-|
A|-0--0-0----0--0-0----0--0-0----0--0-0-0-0-|
E|------------------------------------------|
   .  . .    .  . .    .  . .    .  . . . .

repeat intro x2


Verse:
lead and rhythm
e|------------------------------------------------------------------|
B|------------------------------------------------------------------|
G|----------------------------------2--x-x-x-2--x-x-x-2--x-x-x-2----|
D|-2--x-x-x-2--x-x-x-2--x-x-x-2-----2--x-x-x-2--x-x-x-2--x-x-x-2----|
A|-2--x-x-x-2--x-x-x-2--x-x-x-2--6--0--x-x-x-0--x-x-x-0--x-x-x-0--4-|
E|-0--x-x-x-0--x-x-x-0--x-x-x-0--4--------------------------------2-|

lead
e|------------------------------------------------------------------|
B|------------------------------------------------------------------|
G|----------------------------9-11--6--x-x-x-6--x-x-x-6--x-x-x-9--8-|
D|----------------------------x--x--x--x-x-x-x--x-x-x-x--x-x-x-x--x-|
A|----------------------------7--9--4--x-x-x-4--x-x-x-4--x-x-x-7--6-|
E|------------------------------------------------------------------|
rhythm
e|------------------------------------------------------------------|
B|------------------------------------------------------------------|
G|----------------------------------2--x-x-x-2--x-x-x-2--x-x-x-2----|
D|-2--x-x-x-2--x-x-x-2--x-x-x-2-----2--x-x-x-2--x-x-x-2--x-x-x-2--4-|
A|-2--x-x-x-2--x-x-x-2--x-x-x-2--6--0--x-x-x-0--x-x-x-0--x-x-x-0--2-|
E|-0--x-x-x-0--x-x-x-0--x-x-x-0--4----------------------------------|


Prechorus:
lead
e|-------------------------------------------------------------------|
B|---------5---4h5---------------------------------------------------|
G|-4-4-4-4---4-------------------------------------------------------|
D|-------------------------------------------------------------------|
A|-------------------------------------------------------------------|
E|-------------------------------------------------------------------| x12
   . . . .   .
rhythm
e|-------------------------------------------------------------------|
B|-------------------------------------------------------------------|
G|-------------------------------------------------------------------|
D|---------2-----2----------4-----4----------2-----2---------2-----2-|
A|-4-4-4-4-4-4-4-4--2-2-2-2-2-2-2-2--0-0-0-0-0-0-0-0-0-0-0-0-0-0-0-0-|
E|-------------------------------------------------------------------| x3
   . . . .   . .    . . . .   . .    . . . .   . .   . . . .   . .
lead
e|-------------------------------------|
B|---------5---4h5----------5---4h5----|
G|-4-4-4-4---4------4-4-4-4---4------6-|
D|-------------------------------------|
A|-------------------------------------|
E|-------------------------------------|
   . . . .   .      . . . .   .
rhythm
e|-------------------------------------|
B|-------------------------------------|
G|-----------------------------------2-|
D|---------2-----2----------4-----4--2-|
A|-4-4-4-4-4-4-4-4--2-2-2-2-2-2-2-2--0-|
E|-------------------------------------|
   . . . .   . .    . . . .   . .


Chorus:
lead
e|-----------4p0----------------------------|
B|-5p0-0h7p0--------------------------------|
G|------------------------------------------|
D|------------------------------------------|
A|------------------------------------------|
E|------------------------------------------| x4
rhythm
e|------------------------------------------|
B|------------------------------------------|
G|------------------------------------------|
D|------------------------------------------|
A|-2--2-2----2--2-2----2--2-2----2--2-2-2-2-|
E|-0--0-0----0--0-0----0--0-0----0--0-0-0-0-|
   .  . .    .  . .    .  . .

lead
e|-----------4p0----------------------------|
B|-5p0-0h7p0--------------------------------|
G|------------------------------------------|
D|------------------------------------------|
A|------------------------------------------|
E|------------------------------------------| x4
rhythm
e|------------------------------------------|
B|------------------------------------------|
G|------------------------------------------|
D|-2--2-2----2--2-2----2--2-2----2--2-2-2-2-|
A|-0--0-0----0--0-0----0--0-0----0--0-0-0-0-|
E|------------------------------------------|
   .  . .    .  . .    .  . .    .  . . . .
repeat chorus x2


Verse 2:
lead
e|------------------------------------------------------------------|
B|------------------------------------------------------------------|
G|-9--x-x-x-9--x-x-x-9--x-x-x-9-11--6--x-x-x-6--x-x-x-6--x-x-x-6--6-|
D|-x--x-x-x-x--x-x-x-x--x-x-x-x--x--x--x-x-x-x--x-x-x-x--x-x-x-x--x-|
A|-7--x-x-x-7--x-x-x-7--x-x-x-7--9--4--x-x-x-4--x-x-x-4--x-x-x-4--4-|
E|------------------------------------------------------------------|
rhythm
e|------------------------------------------------------------------|
B|------------------------------------------------------------------|
G|----------------------------------2--x-x-x-2--x-x-x-2--x-x-x-2----|
D|-2--x-x-x-2--x-x-x-2--x-x-x-2-----2--x-x-x-2--x-x-x-2--x-x-x-2----|
A|-2--x-x-x-2--x-x-x-2--x-x-x-2--6--0--x-x-x-0--x-x-x-0--x-x-x-0--4-|
E|-0--x-x-x-0--x-x-x-0--x-x-x-0--4--------------------------------2-|
lead
e|------------------------------------------------------------------|
B|------------------------------------------------------------------|
G|-9--x-x-x-9--x-x-x-9--x-x-x-9-11--6--x-x-x-6--x-x-x-6--x-x-x-9--8-|
D|-x--x-x-x-x--x-x-x-x--x-x-x-x--x--x--x-x-x-x--x-x-x-x--x-x-x-x--x-|
A|-7--x-x-x-7--x-x-x-7--x-x-x-7--9--4--x-x-x-4--x-x-x-4--x-x-x-7--6-|
E|------------------------------------------------------------------|
rhythm
e|------------------------------------------------------------------|
B|------------------------------------------------------------------|
G|----------------------------------2--x-x-x-2--x-x-x-2--x-x-x-2----|
D|-2--x-x-x-2--x-x-x-2--x-x-x-2-----2--x-x-x-2--x-x-x-2--x-x-x-2--4-|
A|-2--x-x-x-2--x-x-x-2--x-x-x-2--6--0--x-x-x-0--x-x-x-0--x-x-x-0--2-|
E|-0--x-x-x-0--x-x-x-0--x-x-x-0--4----------------------------------|


Prechorus
Chorus


Bridge:
lead
e|----------4-------------------4-----------------4--------------|
B|------------5-------/4--/5------5-----------------5-------4--5-|
G|-6--4--2------4--6----------4-----4--4/6--4--2------4--6-------|
D|---------------------------------------------------------------|
A|---------------------------------------------------------------|
E|---------------------------------------------------------------|
rhythm
e|---------------------------------------------------------------|
B|---------------------------------------------------------------|
G|---------------------------------------------------------------|
D|-6-6-6-6-6-6-6-6--4-4-4-4-4-4-4-4--2-2-2-2-2-2-2-2-2-2-2-2-2-2-|
A|-4-4-4-4-4-4-4-4--2-2-2-2-2-2-2-2--0-0-0-0-0-0-0-0-0-0-0-0-0-0-|
E|---------------------------------------------------------------|
   . . . . . . . .  . . . . . . . .  . . . . . . . . . . . . . .


Interlude:
lead (with a weird effect)
e|-----------4p0----------------------------|
B|-5p0-0h7p0--------------------------------|
G|------------------------------------------|
D|------------------------------------------|
A|------------------------------------------|
E|------------------------------------------| x4
rhythm
e|------------------------------------------|
B|------------------------------------------|
G|------------------------------------------|
D|------------------------------------------|
A|------------------------------------------|
E|------------------------------------------|


Chorus


Outro:
lead and rhythm
e|----------------------|
B|----------------------|
G|----------------------|
D|-2--x-x-x-2--x-x-x-2~-|
A|-2--x-x-x-2--x-x-x-2~-|
E|-0--x-x-x-0--x-x-x-0~-|

| /  slide up
| \  slide down
| h  hammer-on
| p  pull-off
| ~  vibrato
| +  harmonic
| x  Mute note
===============================================================================
Tap to rate this tab
# A B C D E F G H I J K L M N O P Q R S T U V W X Y Z