Song name
# A B C D E F G H I J K L M N O P Q R S T U V W X Y Z

New Found Glory - Right Where We Left Off tab

Help us improve GuitareTab! Take a short survey!
This isn't to hard of a song hope you like my tabing

INTRO/CHORUS
e-----------------------------------|
B-----------------------------------|
G-------2----------2----------------|
D-----------------------------------|
A-1-1-4---4-4--1-4---4-4------------|
E---------2-2--------2-2------------|

e-------------------------|
B-------------------------|
G-------------------------|
D-3-3-4-3-1----3-4-3-1----|
A-----------4----------4--|
E-------------------------|

VERSE
e------------------------------------------|
B------------------------------------------|
G------------------------------------------|
D------------------------------------------|
A-4-4-4-4-6-6-6-6-8-8-8-8-9-9-9-6-6-6------|
E-2-2-2-2-4-4-4-4-6-6-6-6-7-7-7-4-4-4------|
  . .     . .     . .     . .   . .

INTERLUDE
e--------|
B--------|
G--------|
D--------|
A-8------|
E-6------|

Thats preatty musch all there is to it and comment suggestion etc... my aim is Curcio1394@aim.com
Related for Right Where We Left Off tab