Song name
# A B C D E F G H I J K L M N O P Q R S T U V W X Y Z

New Found Glory - Tangled Up tab

Help us improve GuitareTab! Take a short survey!
-----------------------------------------------------------------------
			     TANGLED UP - New Found Glory
-----------------------------------------------------------------------

Tabbed by: The_extreme
Email:slipknotrules@comcast.net

Tuning:Standard

Guitar 1

This is also the verse

INTRO:
e|-0-0-0-0--0/0-0--0-0---0--0-0-0-0------------------------|
B|-8-8-7-7--3/5-5--8-8--10-10-7-7-7------------------------|
G|---------------------------------------------------------|
D|---------------------------------------------------------|
A|---------------------------------------------------------|
E|---------------------------------------------------------|

Guitar 2

e|--------------------------------------------------------|
B|--------------------------------------------------------|
G|-------------------55--5-------77-7---------------------|
D|-------------------55--5-55--5-77-7-55-5----------------|(4X)
A|-------------------33--3-55--5-55-5-55-5----------------|
E|/////Pickslide////-------33--3------33-3----------------|


After intro is played twice, play this over it.
Related for Tangled Up tab