Song name
# A B C D E F G H I J K L M N O P Q R S T U V W X Y Z

New Found Glory - Reasons tab

Artist: New Found Glory
Title: Reasons
Album: Not Without A Fight
Tab: Paz Zionit

(Aoustic)
You can steal my eyes - Carve them out, I don't even 
E|--------------------------------------------------------------------|
B|--------------------------------------------------------------------|
G|-4-4444-4-4444-6-6666-6-6666--4-4444-4-4444-4-4444-4-4444-----------|
D|-4-4444-4-4444-6-6666-6-6666--4-4444-4-4444-4-4444-4-4444-----------|
A|-2-2222-2-2222-4-4444-4-4444--2-2222-2-2222-2-2222-2-2222-----------|
E|--------------------------------------------------------------------|

(Distortion)
need them I don't wanna see anyone other than you
E|--------------------------------------------------------------------|
B|--------------------------------------------------------------------|
G|--------------------------------------------------------------------|
D|-6-6666-6-6666-4-4444-4-4444-6-6666--9-9999-44-4-444-4--------------|
A|-6-6666-6-6666-4-4444-4-4444-6-6666--9-9999-44-4-444-4--------------|
E|-4-4444-4-4444-2-2222-2-2222-4-4444--7-7777-22-2-222-2--------------|

You cover your face, you're afraid to see
E|--------------------------------------------------------------------|
B|--------------------------------------------------------------------|
G|-4-4444-4-4444-6-6666-6-6666--4-4444-4-4444-4-4444-4-4444-----------|
D|-4-4444-4-4444-6-6666-6-6666--4-4444-4-4444-4-4444-4-4444-----------|
A|-2-2222-2-2222-4-4444-4-4444--2-2222-2-2222-2-2222-2-2222-----------|
E|--------------------------------------------------------------------|

the outcome It's more than anyone person can bare
E|--------------------------------------------------------------------|
B|--------------------------------------------------------------------|
G|--------------------------------------------------------------------|
D|-6-6666-6-6666-4-4444-4-4444-6-6666--9-9999-44-4-444-4--------------|
A|-6-6666-6-6666-4-4444-4-4444-6-6666--9-9999-44-4-444-4--------------|
E|-4-4444-4-4444-2-2222-2-2222-4-4444--7-7777-22-2-222-2--------------|

(CHORUS)
You take me for granted, You take me for reasons known only by 
E|--------------------------------------------------------------------|
B|-----4/5-------4\2-------4/5------4-2-------------------------------|
G|-----3/4-------3\1-------3/4------3-1-4-----------------------------|
D|-222------444-------666-------444-----4-----------------------------|
A|-222------444-------666-------444-----------------------------------|
E|-000------222-------444-------222-----------------------------------|

You take me for granted, You take me for reasons known only by 
E|--------------------------------------------------------------------|
B|-----4/5-------4\2-------4/5----------------------------------------|
G|-----3/4-------3\1-------3/4----------------------------------------|
D|-222------444-------666-------444-4-444-----------------------------|
A|-222------444-------666-------444-4-444-----------------------------|
E|-000------222-------444-------222-2-222-----------------------------|

If my heart is made out of gold than why does it feel like I'm here all alone
E|--------------------------------------------------------------------|
B|--------------------------------------------------------------------|
G|--------------------------------------------------------------------|
D|-222222444444666666444444-------------------------------------------|
A|-222222444444666666444444-------------------------------------------|
E|-000000222222444444222222-------------------------------------------|

CHORUS

E|--------------------------------------------------------------------|
B|--------------------------------------------------------------------|
G|-11-11-11-9-9-9-8-9-8---------8-8-8-6-6-6-9-9-9-8-6-----------------|
D|----------------------11-9-9------------------------9---------------|
A|--------------------------------------------------------------------|
E|--------------------------------------------------------------------| X2

Paz Zionit

Tap to rate this tab
 
# A B C D E F G H I J K L M N O P Q R S T U V W X Y Z