Song name
# A B C D E F G H I J K L M N O P Q R S T U V W X Y Z

New Found Glory - Hold My Hand tab

Sounds perfect when i play it so email me if theres a problem JesikaMarlow@hotmail.co.uk

p = pull off
/ = Slide up


The intro isn't on any other tabs because it is actually played on piano, But i 
also put the proper way on here to keep yall happy (:.
e|-------------------------------------------|
B|--3-----6-3---3-----3--------3-------------|
G|----5-3-----5---5-----5--3-----5-3-3-------|
D|---------------------------5---------------|
A|-------------------------------------------|
E|-------------------------------------------|

e|-------------------------------------------|
B|--3-----6-3---3-----3---3------------------|
G|----5-3-----5---5-----5---5p3--------------|
D|-------------------------------------------|
A|-------------------------------------------|
E|-------------------------------------------|

Actual intro. [the other ways better ;)]                              
e|--------------------------------------------------------------------------|
B|--------------------------------------------------------------------------|
G|--------------------------------------------------------------------------|
D|--------------------------------------------------------------------------|
A|9-9-9-9-9-9-9-9-9-9-9-9-9-9-2-2-6-6-6-6-6-6-6-6-6-6-6-6-6-6-2-2-----------|
E|7-7-7-7-7-7-7-7-7-7-7-7-7-7-0-0-4-4-4-4-4-4-4-4-4-4-4-4-4-4-0-0-----------|
  

                                  Verse.
e|--------------------------------------------------------------------------|
B|---------------------------------------------------------------------------
G|--------------------------------------------------------------------------|
D|------------------------------------------------6-6-6-6-6-6-6-6-----------|
A|9-9-9-9-9-9-9-9-9-9-9-9-9-9-2-2-6-6-6-6-6-6-6-6-6-6-6-6-6-6-6-6-----------|
E|7-7-7-7-7-7-7-7-7-7-7-7-7-7-0-0-4-4-4-4-4-4-4-4-4-4-4-4-4-4-4-4-----------|


                     Pre chorus, [You smell like angels oughta smell]
e|--------------------------------------------------------------------------|
B|--------------------------------------------------------------------------|
G|--------------------------------------------------------------------------|
D|2-2-2-2--2--2--2--6-6--4-4-4---4----4--4-------9--2-2-2-2--2--2--2--6-6---|
A|2-2-2-2--2--2--2--6-6--4-4-4-2-4--2-4--4--4/6--9--2-2-2-2--2--2--2--6-6---|
E|0-0-0-0--0--0--0--4-4--2-2-2-0-2--0-2--2--2/4--7--0-0-0-0--0--0--0--4-4---|
                                       

e|--------------------------------------------------------------------------|
B|---------------------------------------------------------------------------
G|--------------------------------------------------------------------------|
D|4-4-4---4----4--4---------------------------------------------------------|
A|4-4-4-2-4--2-4--4--4/6----------------------------------------------------|
E|2-2-2-0-2--0-2--2--2/4----------------------------------------------------|
                  

Chorus
  "So hold my hand..."
e|--------------------------------------------------------------------------|
B|--------------------------------------------------------------------------|
G|--------------------------------------------------------------------------|
D|9--9-9-9-9-9-9-9-9-9-9-9-9-9-9--6--6-6-6-6-6-6-6-6-6-6-6-6-6-6--4--4-4-4-4|
A|9--9-9-9-9-9-9-9-9-9-9-9-9-9-9--6--6-6-6-6-6-6-6-6-6-6-6-6-6-6--4--4-4-4-4|
E|7--7-7-7-7-7-7-7-7-7-7-7-7-7-7--4--4-4-4-4-4-4-4-4-4-4-4-4-4-4--2-2-2-2-2-|

e|--------------------------------------------------------------------------|
B|--------------------------------------------------------------------------|
G|--------------------------------------------------------------------------|
D|4-4-4-4-4-4--------2--2-2--------2--2-2-----------------------------------|
A|4-4-4-4-4-4--------2--2-2--------2--2-2-----------------------------------|
E|2-2-2-2-2-2-2-/-4--0--0-0-2-/-4--0--0-0-2-/-4-----------------------------|

Then you play the intro again, 
Repe at the whole thing. You may have to listen to it a couple of times to get the timing right.

[LYRICS]
The Way Your Hair Swings Over Your Eyes
The Motor In My Head Turns
Wanting You For Such A Long Time
In My Mind, A Heart, A Lesson To Learn

[Pre chorus]
Do Do Do Do Do Do Do Do
You'll Never Know,
I'm After You
Do Do Do Do Do Do Do Do
You'll Never Know

[CHORUS]
And You Smell Like,
How Angels Oughta Smell
And You Look Like
You're Ready To Go
So Hold My Hand
I'll Take You Everywhere
Anywhere
You Wanna Go

The Way Your Words Keep Me In A Line
I Know What I'm Here For
Waking Up To The Green Of Your Eyes
It's Something I'll Get Used To (oh!)

[Pre chorus]

[Chorus]

So Come On And Hold My Hand (hold My Hand)
I'll Take You Everywhere (everywhere)
Anywhere
I'll Take You Anywhere
So Let's Go

The Way Your Hair Swings Over Your Eyes
The Way Your Words Keep Me In A Line
I'm Telling You For The Very Last Time
You Better Know

[Chorus]

So Come On And Hold My Hand (hold My Hand)
I'll Take You Everywhere (everywhere)
Anywhere
You Wanna Go

Do Do Do Do Do Do Do Do
Do Do Do Do Do Do Do Do
Do Do Do Do Do Do Do Do
Do Do Do Do Do Do Do Do

So Come On And Hold My Hand (hold My Hand)
I'll Take You Everywhere (everywhere)
Anywhere
You Wanna Go

So Come On And Hold My Hand (hold My Hand)
I'll Take You Everywhere (everywhere)
Anywhere
You Wanna Go
Tap to rate this tab
 
# A B C D E F G H I J K L M N O P Q R S T U V W X Y Z