Song name
# A B C D E F G H I J K L M N O P Q R S T U V W X Y Z

New Found Glory - I Dont Wanna Know chords

Highlighted       Show chord diagrams
-------------------------------------------------------------------------------
			     I DON'T WANNA KNOW - New Found Glory
-------------------------------------------------------------------------------
Tabbed by: Jason Scott
Email: frknn34@gmail.com

Tuning: Standard

Notes: There are so many variations to these chords I'm listing; So in this section I'll 
you the variation I play. And I find this version an excellent one to play when I'm the 
guitarist, so it's great to adapt to the acoustic. I hope you enjoy it!
    G      Cadd9      Em7
e|--3--------3---------3---|
B|--3--------3---------3---|
G|--0--------X---------X---|
D|--X--------3---------2---|
A|--3--------2---------2---|
E|--2--------X---------0---|

Intro (same for verse)
e|-------------------------------------------|
B|-------0---------0---------0---------0-----|
G|--2--0---0--2--0---0--2--0---0--2--0---0---| 2x
D|-------------------------------------------|
A|--3----------------------3------3----------|
E|-----3------3---------3--------------------|

                  G    Cadd9    Em7
I don't wanna know

        Cadd9     G    Cadd9    Em7    Cadd9
I don't wanna know

G                           Cadd9
  Your eyes were covered in sunglasses
          Em7         Cadd9
when they first met mine
G                 Cadd9
  I sat there and stared at you
    Em7            Cadd9
you didn't seem to mind
    Em7 (let ring)  Cadd9 (let ring)
the awkward ways we meet

G                 Cadd9
First comes heavy breathing
Em7            Cadd9
staring at the ceiling
G                Cadd9
what will happen next

I don't wanna know
Em7             Cadd9
I don't wanna know

G    Cadd9    Em7    Cadd9  (play 2x)

G                     Cadd9
  I never cared how I dressed before
      Em7          Cadd9
but I cared that night
G              Cadd9
  anticipation ran through my bones
       Em7               Cadd9
and my clothes never fit right
  Em7 (let ring)     Cadd9 (let ring)
I can't wait 'til we meet again

G                 Cadd9
First comes heavy breathing
Em7            Cadd9
staring at the ceiling
G                Cadd9
what will happen next

I don't wanna know
Em7             Cadd9
I don't wanna know

D                 Cadd9                  D
  framed pictures start to be put on the walls
         Cadd9                       D
constant visits while I'm out on the road
             Cadd9
it's hard to leave sometimes
    D                Cadd9          G
but you know where I lay my head at night

Cadd9    Em7    Cadd9

(crescendo) G    Cadd9   Em7    Cadd9

G                 Cadd9
First comes heavy breathing
Em7            Cadd9
staring at the ceiling
G                Cadd9
what will happen next

I don't wanna know
Em7             Cadd9
I don't wanna know
Tap to rate this tab
 
# A B C D E F G H I J K L M N O P Q R S T U V W X Y Z