Song name
# A B C D E F G H I J K L M N O P Q R S T U V W X Y Z

New Found Glory - Taken Back By You tab

intro/solo riff
part 1
e-----5----------------------|
b---5---8--8------------5-5b-|
g-5----------5-7--7-5-7------|
d----------------------------|
a----------------------------|
e----------------------------|

part 2
e-----5---------------------|
b---5---8--8------------5---|
g-5----------5-7--7-5-7---7-|
d---------------------------|
a---------------------------|
e---------------------------|

rhythm (intro/verses)
e--------------------------------|
g--------------------------------|
b----------------------7-7-7-7-7-|
d-7-7-7--5-5-5--2-2-2--7-7-7-7-7-|
a-7-7-7--5-5-5--2-2-2--5-5-5-5-5-|
e-5-5-5--3-3-3--0-0-0------------|

verse
lead (Very Quiet.  Hard to hear it)
e------------------------------------|
b------------------------------------|
g-5-5-5--4-4-4-4-4--0-0-0--2-2-2-2-2-|
d-7-7-7--5-5-5-5-5--2-2-2--3-3-3-3-3-|
a------------------------------------|
e------------------------------------|

rhythm
e--------------------------------|
g--------------------------------|
b----------------------7-7-7-7-7-|
d-7-7-7--5-5-5--2-2-2--7-7-7-7-7-|
a-7-7-7--5-5-5--2-2-2--5-5-5-5-5-|
e-5-5-5--3-3-3--0-0-0------------|

chorus
e-------------------------------------|
b-------------------------------------|
g-55555555----------77777777----------|
d-55555555-55555555-77777777-55555555-|
a-33333333-55555555-55555555-55555555-|
e----------33333333----------33333333-|

That's basically the whole song.  Just gotta know when to play what
Tap to rate this tab
 
# A B C D E F G H I J K L M N O P Q R S T U V W X Y Z