Song name
# A B C D E F G H I J K L M N O P Q R S T U V W X Y Z

New Found Glory - Boulders tab

-------------------------------------------------------------------------------
			     Boulders (Solo 1) - New Found Glory
-------------------------------------------------------------------------------
Tabbed by: mike089

Tuning: Standard

repeat once
e|---------------------------------------------------------------------------|
B|---------------------------------------------------------------------------|
G|---------------------------------------------------------------------------|
D|---9h10---9---------------9h10---9-------------9h10---9/12---10---10-10-10-|
A|---------------12---10---------------12---10-------------------------------|
E|---------------------------------------------------------------------------|

e|---------------------------------------------------------------------------|
B|---------------------------------------------------------------------------|
G|--------12-12-12---14-14---16-16--------------14-14---16-16----------------|
D|---10------------------------------14-14-14--------------------12-12-12----|
A|---------------------------------------------------------------------------|
E|---------------------------------------------------------------------------|

e|---------------------------------------------------------------------------|
B|---------------------------------------------------------------------------|
G|---14-14---12-12-----------------------------------------------------------|
D|--------------------10p9--------12-12---10-10---12---10p9------------------|
A|---------------------------10--------------------------------10------------|
E|---------------------------------------------------------------------------|


************************************

| /   slide up
| \   slide down
| h   hammer-on
| p   pull-off
| ~   vibrato
| +   harmonic
| x   Mute note
| b   Bend
| pb  Pre-bend
| br  Bend release
| pbr Pre-bend release
| brb Bend release bend

************************************

Tap to rate this tab
 
# A B C D E F G H I J K L M N O P Q R S T U V W X Y Z