Song name
# A B C D E F G H I J K L M N O P Q R S T U V W X Y Z

New Found Glory - Right Where We Left Off tab

Right Where We Left Off - New Found Glory


Rhythm Part
Drop D

see my youtube vid for rhythm search 

bandofguitars 



INTRO/CHORUS
E-------------------------------------|
B-------------------------------------|
G-------------------------------------|
D-------3-4-4--------3-4-4------------|
A-1-1-4---4-4----1-4---4-4------------|
D---------4-4----------4-4------------| X6

OR

E-------------------------------------|
B-------------------------------------|
G-------------------------------------|
D---------4-4----------4-4------------|
A-----4-8-4-4------4-8-4-4------------|
D-8-8-----4-4----8-----4-4------------| X6

(this is easier if you now you Ionian Scale)


VERSE
E--------------------------------------------------------|
B--------------------------------------------------------|
G--------------------------------------------------------|
D-4-4-4--4----6-6-6--6----8-8-8--8----11-11-11---6-6-6---|
A-4-4-4--4----6-6-6--6----8-8-8--8----11-11-11---6-6-6---|
D-4-4-4--4----6-6-6--6----8-8-8--8----11-11-11---6-6-6---| X3
PM. .         . .         . .         .  .       . .



Pre Chorus
E------------------------------------------------------|
B------------------------------------------------------|
G------------------------------------------------------|
D-4-4-4-4-4-4-4-4--6-6-6-6-6-6-6-6--8-8-8-8-8-8--4~----|
A-4-4-4-4-4-4-4-4--6-6-6-6-6-6-6-6--8-8-8-8-8-8--4~----|
D-4-4-4-4-4-4-4-4--6-6-6-6-6-6-6-6--8-8-8-8-8-8--4~----|

PM---------------------------------------------| 
  

Chorus
E-------------------------------------|
B-------------------------------------|
G-------------------------------------|
D---------4-4----------4-4------------|
A-----4-8-4-4------4-8-4-4------------|
D-8-8-----4-4----8-----4-4------------| X8

(or play other version 8 times)


Verse

Pre Chorus

Chorus


Bridge
E-------------------------------------------------------------|
B-------------------------------------------------------------|
G-3~--------6~--------3~--------3------5------6------3--------|
D-------------------------------3-(x8)-5-(X8)-6-(X8)-3-(X8)---|
A-1~--------4~--------1~--------1------3------4------1--------|
D-------------------------------------------------------------|

                              PM---------------------------|

E----------------------------------------------------------------------|
B----------------------------------------------------------------------|
G-3-3-3-3-3-3-3-3---5-5-5-5-5-5-5-5--6-6-6-6-6-6-6-6--8-8-8-8-8-8-8-8--|
D-3-3-3-3-3-3-3-3---5-5-5-5-5-5-5-5--6-6-6-6-6-6-6-6--8-8-8-8-8-8-8-8--|
A-1-1-1-1-1-1-1-1---3-3-3-3-3-3-3-3--4-4-4-4-4-4-4-4--6-6-6-6-6-6-6-6--|
D----------------------------------------------------------------------|


E----------------------------------------------------------------------|
B----------------------------------------------------------------------|
G-3-3-3-3-3-3-3-3---5-5-5-5-5-5-5-5--6-6-6-6-6-6-6-6-------------------|
D-3-3-3-3-3-3-3-3---5-5-5-5-5-5-5-5--6-6-6-6-6-6-6-6--6-6-6-6-6-6-6-6--|
A-1-1-1-1-1-1-1-1---3-3-3-3-3-3-3-3--4-4-4-4-4-4-4-4--6-6-6-6-6-6-6-6--|
D-----------------------------------------------------6-6-6-6-6-6-6-6--|


Interlude 1 
E-------------------------------------|
B-------------------------------------|
G-------------------------------------|
D---------4-4----------4-4------------|
A-----4-8-4-4------4-8-4-4------------|
D-8-8-----4-4----8-----4-4------------|

E--------------------------------------|
B--------------------------------------|
G--------------------------------------|
D---------4-4----------4---------------|
A-----4-8-4-4------4-8-4--(slide Down)-|
D-8-8-----4-4----8-----4---------------|


Chorus


Outro
E-------------------------------------|
B-------------------------------------|
G-------------------------------------|
D---------4-4----------4-4------------|
A-----4-8-4-4------4-8-4-4------------|
D-8-8-----4-4----8-----4-4------------|

E--------------------------------------|
B--------------------------------------|
G--------------------------------------|
D---------4-4----------4---------------|
A-----4-8-4-4------4-8-4---------------|
D-8-8-----4-4----8-----4---------------|

Tap to rate this tab
# A B C D E F G H I J K L M N O P Q R S T U V W X Y Z