Song name
# A B C D E F G H I J K L M N O P Q R S T U V W X Y Z

New Found Glory - Dont Let Her Pull You Down tab

Dont Let here Pull You Down - New Found Glory


Rhythm Part - see others for lead or use your ears!
Drop D

Intro/Chorus 
E|-------------------------------------------------|
B|-------------------------------------------------|
G|-------------------------------------------------|
D|-2--2-2-2---2--2-2-2---2--2-2-2---2--2-2-2-2-2-2-|
A|-2--2-2-2---2--2-2-2---2--2-2-2---2--2-2-2-2-2-2-|
D|-2--2-2-2---2--2-2-2---2--2-2-2---2--2-2-2-2-2-2-|

PM-------------------------------------------------|


E|-------------------------------------------------|
B|-------------------------------------------------|
G|-------------------------------------------------|
D|-7--7-7-7---7--7-7-7---7--7-7-7---7--7-7-7-7-7-7-|
A|-7--7-7-7---7--7-7-7---7--7-7-7---7--7-7-7-7-7-7-|
D|-7--7-7-7---7--7-7-7---7--7-7-7---7--7-7-7-7-7-7-|	

PM-------------------------------------------------|	X2




Verse
E|--------------------------------------------------------------------|
B|--------------------------------------------------------------------|
G|--------------------------------------------------------------------|
D|-2--x-x-x-2--x-x-x-2--x-x-x-2--6----7--x-x-x-7--x-x-x-7--x-x-x-7--4-|
A|-2--x-x-x-2--x-x-x-2--x-x-x-2--6----7--x-x-x-7--x-x-x-7--x-x-x-7--4-|
D|-2--x-x-x-2--x-x-x-2--x-x-x-2--6----7--x-x-x-7--x-x-x-7--x-x-x-7--4-|


E|--------------------------------------------------------------------|
B|--------------------------------------------------------------------|
G|--------------------------------------------------------------------|
D|-2--x-x-x-2--x-x-x-2--x-x-x-2--6----7--x-x-x-7--x-x-x-7--x-x-x-7--9-|
A|-2--x-x-x-2--x-x-x-2--x-x-x-2--6----7--x-x-x-7--x-x-x-7--x-x-x-7--9-|
D|-2--x-x-x-2--x-x-x-2--x-x-x-2--6----7--x-x-x-7--x-x-x-7--x-x-x-7--9-| 




Pre Chorus
E|---------------------------------------------------------------|
B|---------------------------------------------------------------|
G|-6-6-6-6-6-6-6-6--4-4-4-4-4-4-4-4------------------------------|
D|-6-6-6-6-6-6-6-6--4-4-4-4-4-4-4-4--7-7-7-7-7-7-7-7-7-7-7-7-7-7-|
A|-4-4-4-4-4-4-4-4--2-2-2-2-2-2-2-2--7-7-7-7-7-7-7-7-7-7-7-7-7-7-|
D|-----------------------------------7-7-7-7-7-7-7-7-7-7-7-7-7-7-|

PM---------------------------------------------------------------|	X3


E|-------------------------------------|
B|-------------------------------------|
G|-6-6-6-6-6-6-6-6--4-4-4-4-4-4-4-4----|
D|-6-6-6-6-6-6-6-6--4-4-4-4-4-4-4-4--7-|
A|-4-4-4-4-4-4-4-4--2-2-2-2-2-2-2-2--7-|
D|-----------------------------------7-|




Chorus
E|-------------------------------------------------|
B|-------------------------------------------------|
G|-------------------------------------------------|
D|-2--2-2-2---2--2-2-2---2--2-2-2---2--2-2-2-2-2-2-|
A|-2--2-2-2---2--2-2-2---2--2-2-2---2--2-2-2-2-2-2-|
D|-2--2-2-2---2--2-2-2---2--2-2-2---2--2-2-2-2-2-2-|

PM-------------------------------------------------|


E|-------------------------------------------------|
B|-------------------------------------------------|
G|-------------------------------------------------|
D|-7--7-7-7---7--7-7-7---7--7-7-7---7--7-7-7-7-7-7-|
A|-7--7-7-7---7--7-7-7---7--7-7-7---7--7-7-7-7-7-7-|
D|-7--7-7-7---7--7-7-7---7--7-7-7---7--7-7-7-7-7-7-|	

PM-------------------------------------------------|	X2


Verse


Pre Chorus


Chorus


Pre Chorus


Bridge
E|--------------------------------------------------|
B|--------------------------------------------------|
G|--------------------------------------------------|
D|----------------------------------2-2-2-2-2-2-2-2-|
A|--------( Lead )------------------2-2-2-2-2-2-2-2-|
D|----------------------------------2-2-2-2-2-2-2-2-|

                                  PM----------------|

Chorus


Outro
E|----------------------|
B|----------------------|
G|----------------------|
D|-2--x-x-x-2--x-x-x-2~-|
A|-2--x-x-x-2--x-x-x-2~-|
D|-2--x-x-x-2--x-x-x-2~-|

Tap to rate this tab
# A B C D E F G H I J K L M N O P Q R S T U V W X Y Z