Song name
# A B C D E F G H I J K L M N O P Q R S T U V W X Y Z

New Found Glory - Tip Of The Iceberg tab

this is a really good song.
I am actually surprised nobody has tabbed it yet.
anyways I thought I'd give it a go. Please rate and comment. :)

Intro
Part A
e|----------------------------|
B|----------------------------|
G|----------------------------|
D|---99---11-12---55555-------|
A|---99---11-12---55555-------| repeat  4x
D|---99---11-12---55555-------|

Right before he starts singing
Part B
e|----------------------|
B|----------------------|
G|-------------5--------|
D|-----9---3---5--3-----|
A|-----9---3---3--3-----|
D|-----9---3------3-----|

Play Part A again 4 times

then play this (repeat the second bit over and over)
Part C
e|--------|----------------|
B|--------|----------------|
G|--------|----------------|
D|----5-4-|--4-5-4-5-4-----|
A|----5-4-|--4-5-4-5-4-----|
D|----5-4-|--4-5-4-5-4-----|

then play this order Part B, A, C, B

Then the breakdown bit
                                Ending One
e|----------------------------|-------------------------|
B|----------------------------|-------------------------|
G|----------------------------|----------------777777---|
D|----4h5--00----4h5---000-2--|---4h5--000-4---xxxxxx---|
A|----4h5--00----4h5---000-2--|---4h5--000-4---555555---|
D|----4h5--00----4h5---000-2--|---4h5--000-4------------|
           .           ...             ...

Ending Two
e|--------------------------------|
B|--------------------------------|
G|--------------------------------|
D|----4h5--0---22222--------------|
A|----4h5--0---22222--------------|
D|----4h5--0---22222--------------|
               .....
repeat this until the end and once you get to the end, you should be on ending number 2. 
you would be palm Muting the E chord
( I believe, my theory is not that great) it's the 2.
Anyways, After that just play this chord and let it ring.

e|-----------------|
B|-----------------|
G|-----------------|
D|--------0~-------|
A|--------0~-------|
D|--------0~-------|

And that's it, any questions or concerns just leave a comment, and please Rate :)
Tap to rate this tab
 
# A B C D E F G H I J K L M N O P Q R S T U V W X Y Z