Song name
# A B C D E F G H I J K L M N O P Q R S T U V W X Y Z

New Found Glory - Understatement tab

drop the D

-intro/verse

e-------------------------------------------------------------------------------
b-------------------------------------------------------------------------------
g-------------------------------------------------------------------------------
d---3-3-xx-3-3-xx-3-3-xx-3-3-xx-33333333333333333333333333333333333333333-------
a---3-3-xx-3-3-xx-3-3-xx-3-3-xx-33333333333333333333333333333333333333333-------
d---3-3-xx-3-3-xx-3-3-xx-3-3-xx-33333333333333333333333333333333333333333-------
                                pm---------------------------------------
                                (not for sure how many times,but a lot)

e-------------------------------------------------------------------------------
b-------------------------------------------------------------------------------
g-------------------------------------------------------------------------------
d-5555-----8888-----------------------------------------------------------------
a-5555-----8888-----------------------------------------------------------------
d-5555-----8888-----------------------------------------------------------------

pre-chourus

e-------------------------------------------------------------------------------
b-------------------------------------------------------------------------------
g-------------------------------------------------------------------------------
d-777--555--333--555--777--555--3333333--5--------------------------------------
a-555--333--111--333--555--333--1111111--3--------------------------------------
d-------------------------------------------------------------------------------

2nd time, end with...

e------------------------------------------------------------------------------
b------------------------------------------------------------------------------
g------------------------------------------------------------------------------
d-5-5--------------------------------------------------------------------------
a-3-3--------------------------------------------------------------------------
d------------------------------------------------------------------------------

"but your!"

chourus-

e-------------------------------------------------------------------------------
b-------------------------------------------------------------------------------
g-------------------------------------------------------------------------------
d-33-55-88-10-10----------------------------------------------------------------
a-33-55-88-10-10----------------------------------------------------------------
d-33-55-88-10-10----------------------------------------------------------------

last time-

e-------------------------------------------------------------------------------
b-------------------------------------------------------------------------------
g-------------------------------------------------------------------------------
d-8----------88-10-10-----------------------------------------------------------
a-8-let ring-88-10-10-----------------------------------------------------------
e-8----------88-10-10-----------------------------------------------------------

interlude

e-------------------------------------------------------------------------------
b-------------------------------------------------------------------------------
g-------------------------------------------------------------------------------
d-3-33-33-3-3---5-55-55-5-5---8-88-88-8-8--8-88-88-8-8--------------------------
a-3-33-33-3-3---5-55-55-5-5---8-88-88-8-8--8-88-88-8-8--------------------------
e-3-33-33-3-3---5-55-55-5-5---8-88-88-8-8--8-88-88-8-8--------------------------
 pm------       pm-----       pm-----      pm-----

2nd interlude

clean

e-------------------------------------------------------------------------------
b-------------------------------------------------------------------------------
g-------------------------------------------------------------------------------
d-33--55--88--1010--------------------------------------------------------------
a-33--55--88--1010--------------------------------------------------------------
d-33--55--88--1010--------------------------------------------------------------
Tap to rate this tab
# A B C D E F G H I J K L M N O P Q R S T U V W X Y Z