New Found Glory - The Story So Far tab

Any dots mean strum a bunch of times
X's over notes means palm mute

VERSE (starts off with no guitar, then soft & distorted)
              this 2nd part is played at the beginning of verse 2 only
E|---------|---------|
B|---------|---------|
G|-9-9-9-7-|-5-5-5---|
D|-x-x-x-x-|-5-5-5-3-|
A|-7-7-7-5-|-3-3-3-3-|
E|---------|-------1-|

BRIDGE (distorted, palm mute chords with X's over them)
           X X   X X X   X X X             play this during last run
E|---------------------------------------|---------------------------|
B|---------------------------------------|---------------------------|
G|-------------5-5-5-5---------5-5-------|--------------5-5-5-5-7-10-|
D|-5-5-5-7-7-7-5-5-5-5-3-3-3-3-5-5-5-5-5-|--5-5-5-7-7-7-5-5-5-5-x-xx-|
A|-5-5-5-7-7-7-3-3-3-3-3-3-3-3-3-3-5-5-5-|--5-5-5-7-7-7-3-3-3-3-5-8--|
E|-3-3-3-5-5-5---------1-1-1-1-----3-3-3-|--3-3-3-5-5-5--------------|
                                                                ....
CHORUS (distorted)

E|---------------------------------------------------------|
B|---------------------------------------------------------|
G|-5-5-5-5-------5-5-5-5-------2-2-2-2-------2-2-2-2-------|
D|-5-5-5-5-3-3-3-5-5-5-5-3-3-3-2-2-2-2-3-3-3-2-2-2-2-5-5-5-|
A|-3-3-3-3-3-3-3-3-3-3-3-3-3-3-0-0-0-0-3-3-3-0-0-0-0-5-5-5-|
E|---------1-1-1---------1-1-1---------1-1-1---------3-3-3-|

SOLO 1 (distorted, repeat twice, also use at end chorus)

E|-----------------------------------------------------------------|
A|-----------------------------------------------------------------|
D|----------12-10-9-7/5/7/9/7/5/7/9----------12-10-9-7/5/7/9-7-5-5-|
G|-10h12p10-------------------------10h12p10-----------------------|
B|-----------------------------------------------------------------|
E|-----------------------------------------------------------------|

INTERLUDE (non acoustic, distorted; strum & let ring)

E|---------|
B|---------|
G|---------|
D|-3-5-7-5-|
A|-3-5-7-5-|
E|-1-3-5-3-|

SOLO 2 (distorted)

E|-----------------------------------------------------------------|
B|-----8-----------------------8-8-----8-8-5-5---------------------|
G|-5-5---5-5-5-5-5-4-4-4-4-5-5-----5-5---------7-7-5-5-5-5-5-5-5-4-|
D|-----------------------------------------------------------------|
A|-----------------------------------------------------------------|
E|-----------------------------------------------------------------|
                     X X X X X
E|---------------------------------|
B|-------8-8-----------------------|
G|-4-5-5-----5-7-5-----5---5---7-5-|
D|-------------------5---5---5-----|
A|---------------------------------|
E|---------------------------------|

ORDER: Verse, Bridge, Chorus, Verse, Bridge, Chorus, Solo 1, Interlude, Solo 2, Bridge, 
Solo 1
Tap to rate this tab
 
# A B C D E F G H I J K L M N O P Q R S T U V W X Y Z