Song name
# A B C D E F G H I J K L M N O P Q R S T U V W X Y Z

New Found Glory - I Want It That Way tab

artist: new found glory
song: i want it that way (backstreet boys)

tuning: standard
key: A [chorus 2: B]
legend:
            . - palm mute
            ~ - sustain note

 -----------
|   intro   |
 -----------

guitar 2

e|---------------------------0-------2------------------0---|
B|------2---2-------3------2----------2-------3-------------|
G|-------2---2----2------2-------------2----2---------2-----|
D|---4----4-----0------2-----------4------0-------2-2-------|
A|--4-----------------------------4-------------------------|
E|--2----------------------------2--------------------------|


 -------------
|   verse1    |
 -------------

guitar 1

e|----------------------------------|
B|----------------------------------|
G|-------7~~--9~~-------7~~--9~~----|
D|--4~~--7~~--9~~--4~~--7~~--9~~----| (2x)
A|--4~~--5~~--7~~--4~~--5~~--7~~----|
E|--2~~------------2~~--------------|

guitar 2

e|---------------------------0-------2------------------0---|
B|------2---2-------3------2----------2-------3-------------|
G|-------2---2----2------2-------------2----2---------2-----| (2x)
D|---4----4-----0------2-----------4------0-------2-2-------|
A|--4-----------------------------4-------------------------|
E|--2----------------------------2--------------------------|

 -------------
|   verse2    |
 -------------

guitar 1

e|--------------------------------------------------------------------------|
B|--------------------------------------------------------------------------|
G|------------77777777--99999999------------77777777--99999999--------------|
D|--44444444--77777777--99999999--44444444--77777777--99999999--------------| (3x) then
A|--44444444--55555555--77777777--44444444--55555555--77777777--------------|
E|--22222222----------------------22222222----------------------------------|
    ........  ........  ........  ........  ........  ........


------------------------------------|(e)
------------------------------------|(B)
------------------------------------|
--44444444--22222222--7777777-------|
--44444444--22222222--7777777-------|(A)
--22222222--00000000--5555555-------|(E)
  ......


guitar 2

e|-------------------------------------------------------------|
B|-------------------------------------------------------------|
G|-------7~~--6~~---------7~~--9~~----11~~--7~~--6~~-----------|
D|--4~~--x----x------4~~--x----x------x-----x----x------ then -|
A|--4~~--5~~--4~~----4~~--5~~--7~~----9-~~--5~~--4~~-----------|
E|--2~~--------------2~~---------------------------------------|


------------------------------------|(e)
------------------------------------|(B)
------------------------------------|
--44444444--22222222--7777777-------|
--44444444--22222222--7777777-------|
--22222222--00000000--5555555-------|(E)
  ......


 ------------
|   chorus   |
 ------------

guitar 1

e|-------------------------------------------------------------------------|
B|-------------------------------------------------------------------------|
G|--77777777-----------------------77777777----------------------77777777--|
D|--77777777--66666666--444444444--77777777--66666666--44444444--77777777--|
A|--55555555--66666666--444444444--55555555--66666666--44444444--55555555--|
E|------------44444444--222222222------------44444444--22222222------------|


---------------------------------------------|(e)
---------------------------------------------|
---------------------------------------------|
--666-77777--44444444--22222222--77777777----|
--666-77777--44444444--22222222--77777777----|(A)
--444-55555--22222222--00000000--55555555----|(E)


guitar 2

e|-------------------------------------------------------------------|
B|-------------------------------------------------------------------|
G|---7~~--9~~--6~~---7~~--9~~--6~~--7~~--9~~--6~~--11~~--9~~--14~~---|
D|---x----x----x-----x----x----x----x----x----x----x-----x----x------|
A|---5~~--7~~--4~~---5~~--7~~--4~~--5~~--7~~--4~~--9-~~--7~~--12~~---|
E|-------------------------------------------------------------------|


 ------------
|   verse3   |
 ------------

guitar 1

e|--------------------------------------------------------------------------|
B|--------------------------------------------------------------------------|
G|------------77777777--99999999------------77777777--99999999--------------|
D|--44444444--77777777--99999999--44444444--77777777--99999999--------------| (3x) then
A|--44444444--55555555--77777777--44444444--55555555--77777777--------------|
E|--22222222----------------------22222222----------------------------------|
    ........  ........  ........  ........  ........  ........


------------------------------------|(e)
------------------------------------|(B)
------------------------------------|
--44444444--22222222--7777777-------|
--44444444--22222222--7777777-------|(A)
--22222222--00000000--5555555-------|(E)
  ......


guitar 2

e|-------------------------------------------------------------|
B|-------------------------------------------------------------|
G|-------7~~--6~~---------7~~--9~~----11~~--7~~--6~~-----------|
D|--4~~--x----x------4~~--x----x------x-----x----x------ then -|
A|--4~~--5~~--4~~----4~~--5~~--7~~----9-~~--5~~--4~~-----------|
E|--2~~--------------2~~---------------------------------------|


------------------------------------|(e)
------------------------------------|(B)
------------------------------------|
--44444444--22222222--7777777-------|
--44444444--22222222--7777777-------|
--22222222--00000000--5555555-------|(E)
  ......


repeat chorus

 ------------
|   bridge   |
 ------------

both guitars

e|----------------------------------------|
B|----------------------------------------|
G|-----------7~~--6~~---------------------|
D|--7~~~~----7~~--6~~-----7~~~~---2~~~~---|
A|--7~~~~----5~~--4~~-----7~~~~---2~~~~---|
E|--5~~~~-----------------5~~~~---0~~~~---|


 ------------
|   verse4   |
 ------------

both guitar

e|----------------------------------|
B|----------------------------------|
G|-------7~~--9~~-------7~~--9~~----|
D|--4~~--7~~--9~~--4~~--7~~--9~~----| (2x)
A|--4~~--5~~--7~~--4~~--5~~--7~~----|
E|--2~~------------2~~--------------|

e|--------------------------------------------------------------|
B|--------------------------------------------------------------|
G|------------77777777--99999999--------------------------------|
D|--44444444--77777777--99999999--444444444444--\\\2------------|
A|--44444444--55555555--77777777--444444444444--\\\2--(pause)---|
E|--22222222----------------------222222222222--\\\0------------|
    ........  ........  ........  .............


 -------------
|   chorus2   | (whole step higher)
 -------------

guitar 1

e|-------------------------------------------------------------------------|
B|-------------------------------------------------------------------------|
G|--99999999-----------------------99999999----------------------99999999--|
D|--99999999--88888888--666666666--99999999--88888888--66666666--99999999--|
A|--77777777--88888888--666666666--77777777--88888888--66666666--77777777--|
E|------------66666666--444444444------------66666666--44444444------------|


guitar 2

e|-------------------------------------------------------------------|
B|-------------------------------------------------------------------|
G|---7~~--9~~--6~~---7~~--9~~--6~~--7~~--9~~--6~~--11~~--9~~--14~~---|
D|---x----x----x-----x----x----x----x----x----x----x-----x----x------| (4x)
A|---5~~--7~~--4~~---5~~--7~~--4~~--5~~--7~~--4~~--9-~~--7~~--12~~---|
E|-------------------------------------------------------------------|


 -----------
|   outro   |
 -----------

e|--------------------------------|
A|--------------------------------|
G|--------------------------------|
D|--6~~-------4~~-------9~~-------|
A|--6~~-------4~~-------9~~-------|
E|--4~~-------2~~-------7~~-------|


____________________________________________________________________________

song structure

intro
verse1 (you are...)
verse2 (and when...)
chorus (tell me why...)
verse3
chorus
bridge (and now i can see...)
verse4 (you are...)
chorus2 (ain't nothing but a heartache!)
outro
____________________________________________________________________________

hey guys, i just downloaded this song in frostwire and i think it's pretty
cool, so i tabbed it out ,knowing that the prevous tabs are kinda wrong.
enjoy guys, i lover this version haha :D
____________________________________________________________________________

cheers! let's boogie!
LONG LIVE EARTH 2011! ^^
Tap to rate this tab
 
# A B C D E F G H I J K L M N O P Q R S T U V W X Y Z