New Found Glory - Right Where We Left Off tab

This song is really good!
it is played in standard tuning.
hope you enjoy!

Intro Lead
e|--------------------------------|
B|--------------------------------|
G|----------1------------1--------| repeat as needed
D|-------------4-4-----------4-4--|
A|---1-1--4----4-4--1-4------4-4--|
E|-------------2-2-----------2-2--|

Intro Rhythm  (starts around 0:06)
e|-------------|------------------|
B|-------------|------------------|
G|--333-6------|--3-3-6-----------|
D|--333-6--4-4-|--3-3-6--4-4------|
A|--111-4--4-4-|--1-1-4--4-4------|
E|---------2-2-|---------2-2------|

Intro guitar 3 (starts around 0:12)
e|------------------|----------------|
B|------------------|----------------|
G|--101010-11--8--6-|-1010-11--8--6--|
D|---x-x-x--x--x--x-|--x-x--x--x--x--|
A|---8-8-8--9--6--4-|--8-8--9--6--4--|
E|------------------|----------------|

Verse
e|------------------------------|
B|------------------------------|
G|-------------33-3-66-6-55-5---|
D|--44-4-66-6--33-3-66-6-55-5---|
A|--44-4-66-6--11-1-44-4-33-3---|
E|--22-2-44-4-------------------|
    ..   ..    ..   ..   .. 

pre-chorus (Lead)
e|-------------------------------------|-----------------------------|
B|-------------------------------------|-----------------------------|
G|--------1-1--------------------------|------1-1----------1-1-1-1---|
D|------------4-4--3-3-1-1-----1-1-3-3-|-----------4-4-3-3-----------|
A|----4-4------------------4-4---------|--4-4------------------------|
E|-------------------------------------|-----------------------------|

Rhythm that goes over the riff above
e|----------------------------|
B|----------------------------|
G|-------------3333-6666------|
D|---4444-6666-3333-6666------|
A|---4444-6666-1111-4444------|
E|---2222-4444----------------|

The Chorus is the intro

the next verse, pre-chorus and chorus are the same as before. 

Bridge (both lead and rhythm start on this chord)
e|---------------|
B|---------------|
G|-------3~------|
D|-------3~------|
A|-------1~------|
E|---------------|

Rhythm
e|--------------------------------|
B|--------------------------------|
G|--33333--55555--666666--888888--|
D|--33333--55555--666666--888888--|
A|--11111--33333--444444--666666--|
E|--------------------------------|
    .....  .....  ......  ......

the is a build up on the chords above til finally
the rhythm is no longer palm muting then the lead plays a riff
over top of it

Lead over top of Rhythm bridge
e|---------------------|-----------------------|
B|---------------------|-----------------------|
G|----6666-------------|--6666-----------------|
D|---------6666--------|-------6666------------|
A|--------------888999-|-------------88888-----|
E|---------------------|-----------------------|

After that just repeat the chorus

Hope this has helped. Please rate and comment, So I can fix up any mistakes. 


Tap to rate this tab
 
# A B C D E F G H I J K L M N O P Q R S T U V W X Y Z