Song name
# A B C D E F G H I J K L M N O P Q R S T U V W X Y Z

New Found Glory - The Goonies Are Good Enough tab

-------------------------------------------------
NEW FOUND GLORY - THE GOONIES ARE GOOD ENOUGH
-------------------------------------------------

BY: DEREK

INTRO:
e |---------------------------------------------|
B |---------------------------------------------|
G |-6-6-6-6-6-6-6---4---------------------------|
D |-6-6-6-6-6-6-6-6-4---------------------------|
A |-4-4-4-4-4-4-4-6-2---------------------------|
E |---------------4-----------------------------|

VERSES:
e |---------------------------------------------|
B |---------------------------------------------|
G |-------------------4-6-6-6-6-6-6-6-6-4-------|
D |-2-2-2-2-2-2-2-6-6-4-6-6-6-6-6-6-6-6-4-------|
A |-2-2-2-2-2-2-2-6-6-2-4-4-4-4-4-4-4-4-2-------|
E |-0-0-0-0-0-0-0-4-4---------------------------|

e |---------------------------------------------|
B |---------------------------------------------|
G |---------------------------------------------|
D |-7-7-7-7-9-9-9-9-2-2-2-2-4-6-7-7-7-7-9-9-9-9-|
A |-7-7-7-7-9-9-9-9-2-2-2-2-4-6-7-7-7-7-9-9-9-9-|
E |-5-5-5-5-7-7-7-7-0-0-0-0-2-4-5-5-5-5-7-7-7-7-|

CHORUS
e |---------------------------------------------|
B |---------------------------------------------|
G |---------------------------------------------|
D |-2-2-2-2-6-6-7-7-9-9-9-9-6-6-7-7-9-9---------|
A |-2-2-2-2-6-6-7-7-9-9-9-9-6-6-7-7-9-9---------|
E |-0-0-0-0-4-4-5-5-7-7-7-7-4-4-5-5-7-7---------|
Tap to rate this tab
 
# A B C D E F G H I J K L M N O P Q R S T U V W X Y Z