Song name
# A B C D E F G H I J K L M N O P Q R S T U V W X Y Z

New Found Glory - Its Been A Summer tab

So this is my second tab. There is only one other tab and I saw some
mistakes so I thought I'd make my own. I'm only tabbing 2 guitar parts. 

Band: New Found Glory
Song: It's Been A Summer
Album: Sticks and Stones
Tuning: Drop D (the low e string is tuned down to D)
KEY:   *s are palm-muting
       |--10--| is tenth fret, not first fret then open.
       / is slide up
       \ is slide down
:::::::::::::::::::::::::::::::INTRO:::::::::::::::::::::::::::::::::
Guitar 1-
e|---------------------------------------------|R
B|---------------------------------------------|E
G|---------------------------------------------|P 4X
D|---------------------------------------------|E
A|---------55555555-0-22240002-----------------|A
D|-00000000-------------------5555424----------|T

Guitar 2-
e|---------------------------------------------|
B|---------------------------------------------|
G|---------------------------------------------| comes in after 
D|-----------------------------5555424---------| guitar 1 plays
A|---------55555555-0-22240002-5555424---------| intro riff 1 time
D|-00000000--------------------5555424---------|

E|---------------------------------------------|R
B|---------------------------------------------|E
G|------------------------222------------------|P 2X
D|-00000000-77777777-4446-222-4-5555424--------|E
A|-00000000-55555550-2224-000-2-5555424--------|A
D|-00000000---------------------5555424--------|T

:::::::::::::::::::::::::::::::VERSE:1:::::::::::::::::::::::::::::::
Guitar 1-
e|-----------------------------------------------|\
B|-----------------------------------------------| \
G|-----------------------------------------------|  \
D|-----------------------------------------------|   \
A|-----------------------------------------------|    \
D|----0000000000000000-555~555~555~555~----------|     \
      **************** **  **  **  **  
                                                    REPEAT 2X
Guitar 2-
e|-----------------------------------------------|     /
B|-----------------------------------------------|    /
G|-----------------------------------------------|   /
D|-----------------------------------------------|  /
A|-----------------------------------------------| /
D|----0000000000000000-5555555555555555----------|/
      **************** ****************
Guitar 1-
e|-----------------------------------------------|\
B|-----------------------------------------------| \
G|-----------------------------------------------|  \
D|-----------------------------------------------|   \
A|-----------------------------------------------|    \
D|----0000000000000000-555~555~555~555~----------|     \
      **************** **  **  **  **  
                                                    REPEAT 2X
Guitar 2-
e|-----------------------------------------------|     /
B|-----------------------------------------------|    /
G|---77766644-----7-----7--7---7~---7~-----------|   /
D|-----------77754-45-55-44----------------------|  /
A|---------------------------77---55-------------| /
D|-----------------------------------------------|/

:::::::::::::::::::::::::::::::PRE-CHORUS::::::::::::::::::::::::::::
Guitar 1-
e|-----------------------------------------------|
B|-----------------------------------------------|
G|-----------------------------------------------|
D|--22222222-55555555-2222222-5555555555555555---|
A|--22222222-55555555-2222222-5555555555555555---|
D|--22222222-55555555-2222222-5555555555555555---|

Guitar 2-
E|-----------------------------------------------|
B|-----------------------------------------------|
G|--44444444-77777777-44444444-77777777-12121212-|
D|--xxxxxxxx-xxxxxxxx-xxxxxxxx-xxxxxxxx-x-x-x-x--|
A|--22222222-55555555-22222222-55555555/10101010-|
D|-----------------------------------------------|

:::::::::::::::::::::::::::::::CHORUS:::::::::::::::::::::::::::::::::
Guitar 1-
e|-------------------|R                                 e|------------|
B|-------------------|E                                 B|------------|
G|-------------------|P  8X THEN     ----------- >      G|------------|
D|--00-22-5555555----|E                                 D|--55555555--|
A|--00-22-5555555----|A                                 A|--55555555--|
D|--00-22-5555555----|T                                 D|--55555555--|
                                                         |
Guitar 2-                                                |
e|-------------------------------------------|\          |
B|-------------------------------------------| \         |
G|-77-99-12121212----77-99-1212-11-1212-11---|  \        |
D|-xx-xx-x-x-x-x-----xx-xx-x-x--x--x-x--x----|   \       |
A|-55-77-10101010----55-77-1010-9--1010-9----|    \      |
D|-------------------------------------------|     \     |
 |                                             REPEAT 2X |
e|-------------------------------------------|     /    e|---------------|
B|-------------------------------------------|    /     B|---------------|
G|-77-44-77777777---77-99-1212-11-1212-11----|   / N::::G|-1212-11111111-|
D|-xx-xx-xxxxxxxx---xx-xx-x-x--x--x-x-x-----|  / E     D|-x-x--x-x-x-x--|
A|-55-22-55555555---55-77-1010-9--1010-9-----| / H      A|-1010-9-9-9-9--|
D|-------------------------------------------|/ T       D|---------------|

:::::::::::::::::::::::::::::::INTRO:RIFF:::::::::::::::::::::::::::
Guitar 1-
e|---------------------------------------------|\
B|---------------------------------------------| \
G|---------------------------------------------|  \
D|---------------------------------------------|   \
A|---------55555555-0-22240002-----------------|    \
D|-00000000-------------------5555424----------|     \

                                                  REPEAT 2X
Guitar 2-
E|---------------------------------------------|     /
B|---------------------------------------------|    /
G|------------------------222------------------|   /
D|-00000000-77777777-4446-222-4-5555424--------|  /
A|-00000000-55555550-2224-000-2-5555424--------| /
D|-00000000---------------------5555424--------|/

:::::::::::::::::::::::::::::::VERSE:2:::::::::::::::::::::::::::::::
Guitar 1-
e|-----------------------------------------------|\
B|-----------------------------------------------| \
G|-----------------------------------------------|  \
D|-----------------------------------------------|   \
A|-----------------------------------------------|    \
D|----0000000000000000-555~555~555~555~----------|     \
      **************** **  **  **  **  
                                                    REPEAT 2X
Guitar 2-
e|-----------------------------------------------|     /
B|-----------------------------------------------|    /
G|-----------------------------------------------|   /
D|-----------------------------------------------|  /
A|-----------------------------------------------| /
D|----0000000000000000-5555555555555555----------|/
      **************** ****************
Guitar 1-
e|-----------------------------------------------|\
B|-----------------------------------------------| \
G|-----------------------------------------------|  \
D|-----------------------------------------------|   \
A|-----------------------------------------------|    \
D|----0000000000000000-555~555~555~555~----------|     \
      **************** **  **  **  **  
                                                    REPEAT 2X
Guitar 2-
e|-----------------------------------------------|     /
B|-----------------------------------------------|    /
G|---77766644-----7-----7--7---7~---7~-----------|   /
D|-----------77754-45-55-44----------------------|  /
A|---------------------------77---55-------------| /
D|-----------------------------------------------|/

:::::::::::::::::::::::::::::::PRE-CHORUS::::::::::::::::::::::::::::
Guitar 1-
e|-----------------------------------------------|
B|-----------------------------------------------|
G|-----------------------------------------------|
D|--22222222-55555555-2222222-5555555555555555---|
A|--22222222-55555555-2222222-5555555555555555---|
D|--22222222-55555555-2222222-5555555555555555---|

Guitar 2-
E|-----------------------------------------------|
B|-----------------------------------------------|
G|--44444444-77777777-44444444-77777777-12121212-|
D|--xxxxxxxx-xxxxxxxx-xxxxxxxx-xxxxxxxx-x-x-x-x--|
A|--22222222-55555555-22222222-55555555/10101010-|
D|-----------------------------------------------|

:::::::::::::::::::::::::::::::CHORUS:::::::::::::::::::::::::::::::::
Guitar 1-
e|-------------------|R                                 e|------------|
B|-------------------|E                                 B|------------|
G|-------------------|P  8X THEN     ----------- >      G|------------|
D|--00-22-5555555----|E                                 D|--55555555--|
A|--00-22-5555555----|A                                 A|--55555555--|
D|--00-22-5555555----|T                                 D|--55555555--|
                                                         |
Guitar 2-                                                |
e|-------------------------------------------|\          |
B|-------------------------------------------| \         |
G|-77-99-12121212----77-99-1212-11-1212-11---|  \        |
D|-xx-xx-x-x-x-x-----xx-xx-x-x--x--x-x--x----|   \       |
A|-55-77-10101010----55-77-1010-9--1010-9----|    \      |
D|-------------------------------------------|     \     |
 |                                             REPEAT 2X |
e|-------------------------------------------|     /    e|---------------|
B|-------------------------------------------|    /     B|---------------|
G|-77-44-77777777---77-99-1212-11-1212-11----|   / N::::G|-1212-11111111-|
D|-xx-xx-xxxxxxxx---xx-xx-x-x--x--x-x-x-----|  / E     D|-x-x--x-x-x-x--|
A|-55-22-55555555---55-77-1010-9--1010-9-----| / H      A|-1010-9-9-9-9--|
D|-------------------------------------------|/ T       D|---------------|

:::::::::::::::::::::::::::::::BREAKDOWN::::::::::::::::::::::::::::::::
Guitar 1-
e|--------------------------------------|\
B|--------------------------------------| \
G|--------------------------------------|  \
D|--0-0-0-0-2-2-2-24-5-5-5-5-5-5-5-5----|   \
A|--0-0-0-0-2-2-2-24-5-5-5-5-5-5-5-5----|    \
D|--0-0-0-0-2-2-2-24-5-5-5-5-5-5-5-5----|     \
                                           REPEAT 4X
Guitar 2-
e|--------------------------------------|     /
B|--------------------------------------|    /
G|--------------------------------------|   /
D|--0-0-0-0-2-2-2-24-5-5-5-5-5-5-5-5----|  /
A|--0-0-0-0-2-2-2-24-5-5-5-5-5-5-5-5----| /
D|--0-0-0-0-2-2-2-24-5-5-5-5-5-5-5-5----|/

:::::::::::::::::::::::::::::::::::::BRIDGE:::::::::::::::::::::::::::::::
Guitar 2-
e|-----------------------------------------------------------------|
B|-----------------------------------------------------------------|
G|-----------------------------------------------------------------|
D|-------2----2-24---5-45-----------2---2-24---5-45-5---5-45-5-----|
A|-----5---5---5----5-5--5--------5---5--5----5-5--5---5-5--5------|
D|---2-------------5------5-----2------------5---------------------|

:::::::::::::::::::::::::::::::CHORUS:::::::::::::::::::::::::::::::::
Guitar 1-
e|-------------------|R                                 e|------------|
B|-------------------|E                                 B|------------|
G|-------------------|P  8X THEN     ----------- >      G|------------|
D|--00-22-5555555----|E                                 D|------------|
A|--00-22-5555555----|A                                 A|--55555555--|
D|--00-22-5555555----|T                                 D|--55555555--|
                                                         |
Guitar 2-                                                |
e|-------------------------------------------|\          |
B|-------------------------------------------| \         |
G|-77-99-12121212----77-99-1212-11-1212-11---|  \        |
D|-xx-xx-x-x-x-x-----xx-xx-x-x--x--x-x--x----|   \       |
A|-55-77-10101010----55-77-1010-9--1010-9----|    \      |
D|-------------------------------------------|     \     |
 |                                             REPEAT 2X |
e|-------------------------------------------|     /    e|---------------|
B|-------------------------------------------|    /     B|---------------|
G|-77-44-77777777---77-99-1212-11-1212-11----|   / N::::G|-1212-11111111-|
D|-xx-xx-xxxxxxxx---xx-xx-x-x--x--x-x-x-----|  / E     D|-x-x--x-x-x-x--|
A|-55-22-55555555---55-77-1010-9--1010-9-----| / H      A|-1010-9-9-9-9--|
D|-------------------------------------------|/ T       D|---------------|

:::::::::::::::::::::::::::::::OUTRO:::::::::::::::::::::::::::::::::::
Guitar 1-
e|---------------------------------------------|\
B|---------------------------------------------| \
G|---------------------------------------------|  \
D|---------------------------------------------|   \
A|---------55555555-0-22240002-----------------|    \
D|-00000000-------------------5555424----------|     \

                                                  REPEAT 2X
Guitar 2-
E|---------------------------------------------|     /
B|---------------------------------------------|    /
G|------------------------222------------------|   /
D|-00000000-77777777-4446-222-4-5555424--------|  /
A|-00000000-55555550-2224-000-2-5555424--------| /
D|-00000000---------------------5555424--------|/
Tap to rate this tab
 
# A B C D E F G H I J K L M N O P Q R S T U V W X Y Z